Despacito (Tab)

Artist: Luis Fonsi (Spanish)
User: MARVZ
Duration: 130 seconds
Delay: 12 seconds
Chord names: Not defined
Abusive:
Comment: -

URL

Updated last time:
MARVZ,
March 24, 2018 7:03 AM

Text

Contributed by: MARVZ
Capo 2

[Intro] 

e|-5-----5-----5-----5-----|-5-----5-----5-----5-----
B|---5-----5-----5-----5---|-6-6-----6-----6-----6---
G|-----5-----5-----5-----5-|-5---5-----5-----5-----5-
D|-7-----------------------|-7-----------------------

e|-8-----8-----8-----8-----|-7-|
B|-5-5-----5-----5-----5---|-8-|
G|-5---5-----5-----5-----5-|-7-|
D|-5----------—------------|-0-|

e|-5-----5---------|-5-----5—--------|
B|---5-----5-----5-|---6-----6-----6-|
G|-----5-----5-----|-----5-----5-----|
D|-7-----------7---|-7-----------7---|

e|-8-----8---------|-5-----5—--------|-7-|
B|---5-----5-----5-|---6-----6-----6-|-8-|
G|-----5-----5-----|-----5-----5-----|-7-|
D|-5-----------5---|-7-----------7---|-0-|

e|---5---8p7p5\3h5----5-7--8/10--12----12----12-|
B|--5----------------5-------------~13~--~13~---|
G|-5----------------5---------------------------|
D|----------------------------------------------|

e|-----8-----7----5----8-7-5-------8-7h8p7\5--7-8----|
B|---------------------------8-6-----------------8-8-|
G|-7/9---9\7----5------------------------------------|
D|---------------------------------------------------|

e|-8-7--8/10-------------8-----7-|
B|-----------10/12---------------|
G|-------------------7/9---9\7---|
D|-------------------------------|
 
  si.... 
e|--5--|    e|--5--|    e|--8--|    e|--7--|
B|--5--|    B|--6--|    B|--5--|    B|--8--|
G|--5--| ×4 G|--5--| ×4 G|--5--| ×4 G|--7--| ×4
D|-7---|    D|-7---|    D|-5---|    D|-0---|

e|------8-----7-|
B|--------------|
G|--7/9---9\7---|
D|--------------|

[Verse] 
 
      Am                 F                 C  
e|-------------|  e|-------------|  e|-------------|
B|---1-×---1-×-|  B|---1-×---1-×-|  B|---1-×---1-×-|
G|---2-×---2-×-|  G|---2-×---2-×-|  G|---0-×---0-×-|
D|---------2-×-|  D|---------3-×-|  D|-------2---×-|
A|-0---×-3---×-|  A|-------0-3-×-|  A|-3---×-------|
E|-------------|  E|-1-----------|  E|-------------|
       G  
e|-------------|
B|---3-×---3-×-|
G|---0-×---0-×-|
D|---------0-×-|
A|-------2---×-|
E|-3---×-------|

[Chorus] 

      Am                 F                 C  
e|---------------|  e|-------------|  e|--------------|
B|---1-×-----1-×-|  B|---1-×---1-×-|  B|---1-×----1-×-|
G|---2-×-----2-×-|  G|---2-×---2-×-|  G|---0-×----0-×-|
D|-----------2-×-|  D|---------3-×-|  D|--------2---×-|
A|-0---×-0-3---×-|  A|-------0-3-×-|  A|-3---×-3------|
E|---------------|  E|-1----1------|  E|--------------|

       G  
e|-------------|
B|---3-×---3-×-|
G|---0-×---0-×-|
D|---------0-×-|
A|-------2---×-|
E|-3---×-------|

try adding a palm beat before you hit the  G&B  strings
in verse snd chorus. 

it will sound better with it

so tired hope you enjoy
PS:just do the rest:) 

Comments