Легион табы

Artist: BY Effect (Russian)
User: Кардинал 8997
Duration: 130 seconds
Delay: 12 seconds
Chord names: Not defined
Abusive:
Comment: -

URL

Uploaded:
February 23, 2018 1:05 PM

Text

\
E|---------------|------------|-------------------
B|---------------|------------|-------------------
G|---------2-----|------0-----|-------------------
D|------00---0---|---00---0---|-------------------
A|---------------|------------|-------------------
E|---------------|------------|-------------------
/
\
E|---------------|-------------------------------
B|---------------|-------------------------------
G|---------------|---------0-2-------------------
D|------2--------|-----2-3-----------------------
A|---00---0------|-------------------------------
E|---------------|-------------------------------
/

Comments