Girl of my dreams

Artist: The Moffatts (English)
User: James Carlo Bayantong
Duration: 130 seconds
Delay: 12 seconds
Chord names: Not defined
Abusive:
Comment: -

URL

Uploaded:
January 17, 2018, 11:27 PM

Text




/=Slide down

\=Slide up

h=hammer on

p=pull off

Intro x2

E----------------------------------------------------------------------

B----------------------------------------------------------------------

G--4h5-7-7--5h7p5/4-/2\4-0--0h2h4\5/4/2-0------------------------------

D-------------------------------------------0-0h2----------------------

A----------------------------------------------------------------------

E----------------------------------------------------------------------



            G           Am 

You are the girl..of my dreams

      Em  D         C 

In my heart, I believe

            G           Am 

You are the girl of my dreams

   Em  D       C 

Baby,   of my dreams



---Verse 1

        G       Am 

All alone in my room

 C                    G 

Wishin that you were here

 G                 Am 

Without you in my arms

    C                       G   D/F# 

I'm holdin back all of the tears

        Em         D 

Without you in my life,

 Am              G      Fill 1

I'll never be satisfied



--Chorus

            G           Am 

You are the girl..of my dreams

      Em  D         C 

In my heart, I believe

            G           Am 

You are the girl of my dreams

   Em  D       C 

Baby,   of my dreams



---Verse 2

     G      Am 

Sometimes I feel

   C                    G 

I coulda been better to you

      G          Am 

All I want..is a chance

   C                     G      D/F# 

To prove that my love is true

        Em         D 

Without you in my life,

 Am              G      

I'll never be satisfied



Chorus:

            G           Am 

You are the girl..of my dreams

      Em  D         C 

In my heart, I believe

            G           Am 

You are the girl of my dreams

   Em  D       C 

Baby,   of my dreams



E----------------------------------------------------------------------

B----------------------------------------------------------------------

G--4h5-7-7--5h7p5/4-/2\4-0--0h2h4\5/4/2-0------------------------------

D-------------------------------------------0-0h2----------------------

A----------------------------------------------------------------------

E----------------------------------------------------------------------





---Bridge

 Am              G       C 

Baby, let's go back in time,

                                Am 

to when our hearts would shine

                G    C 

And I could hold you tight..

                D 

in my dreams at night..

- Chorus

            G           Am 

You are the girl..of my dreams

      Em  D         C 

In my heart, I believe

            G           Am 

You are the girl of my dreams

   Em  D       C 

Baby,   of my dreams



Chorus

            G           Am 

You are the girl..of my dreams

      Em  D         C 

In my heart, I believe

            G           Am 

You are the girl of my dreams

   Em  D       C 

Baby,   of my dreams











Fill 1

E----------------3------------------------------------------------------

B----------------------------------------------------------------------

G----------0------------------------------------------------------------

D------2----------------------------------------------------------------

A----3------------------------------------------------------------------

E----------------------------------------------------------------------








Comments