Promise

Artist: Matchbook Romance (English)
User: rhonmichaelmape
Duration: 130 seconds
Delay: 12 seconds
Chord names: Not defined
Abusive:
Comment:
Credits to Ultimate-guitar.com
https://tabs.ultimate-guitar.com/tab/matchbook_romance/promise_chords_653770

URL

Updated last time:
rhonmichaelmape,
November 4, 2017 2:05 PM

Text

There is no strumming pattern for this song yet. Add it and get +5 IQ
Song: PROMISE
Band: Matchbook Romance


Intro:
e|----0--0--0--0--0----0--0--0--0--0----0--0--0--0--0----0--0--0--0--0-|
B|----0--0--0--0--0----0--0--0--0--0----0--0--0--0--0----0--0--0--0--0-|
G|---------------------------------------------------------------------|
D|---------------------------------------------------------------------| 2x
A|--7---7--7--7--7---2---2--2--2--2---0---0--0--0--0---------0--2--2---|
E|-----------------------------------------------------2--4------------|

e|----0--0--0--0--0----0--0--2--0--0----0--2--5--4--4------------------|
B|----0--0--0--0--0----0--0--2--0--0----0--2--5--4--4------------------|
G|---------------------------------------------------------------------|
D|------------------------------------------------------4--6--7~-/-2~--| 
A|--7---7--7--7--7---2---2--2--2--2---0---0--0--0--0----4--6--7~-/-2~--|
E|------------------------------------------------------2--4--5~-/-0~--|


Verse I:
 E                B                         A
  What would you say if I asked you not to go
                        B                                  E
to forget everyone, forget everything and start over with me
                   B                     A
would you take my hand and never let me go
                   B
promise me you'll never let me go


Refrain:
 E                            A
  And the stars aren't out tonight
                            B
But neither are we to look up at them
Why does hello feel like goodbye?
 E                         A
  These memories can't replace,
                                 B
These wishes i wished and these dreams i chased
 F#m       G#m    A         B       E
Take this broken heart and make it right


Chorus:
        E           C#m                    A
I feel like I lost everything when you're gone
        B                   E       C#m
Left remembering what it's like to have you here with me
    A
I thought you should know,
        B
You're not making this easy


Verse II:
 E
    I never thought I'd be the one to say
please don't, please don't leave me


Chorus:
        E           C#m                    A
I feel like I lost everything when you're gone
        B                   E       C#m
Left remembering what it's like to have you here with me
    A
I thought you should know,
        B                E  E-F#m-G#m 
You're not making this easy


Bridge I:
You're not making this easy (easy, easy, easy...)
 C#m - B - A


Bridge II:
 C#m     B        A
Take my hand and never let me go,
 C#m     B        A
Take my hand and never let me go,
 C#m     B
Promise me...
              A
You'll never let go
              B
You'll never let go
              A
You'll never let go
              B
You'll never let go
Make this last forever


Repeat Chorus

I'm pretty sure that these are the right chords,
so please rate this one and hope you enjoy...

Comments