Pink Panther Theme

Artist: Henry Mancini (English)
User: relative3
Duration: 130 seconds
Delay: 12 seconds
Chord names: Not defined
Abusive:
Comment: -

URL

Uploaded:
October 29, 2017 11:09 PM

Text

intro:
E-----------------------------------------------------------------------------------
B-----------------------------------------------------------------------------------
G-----------------------------------------------------------------------------------
D-----------------------------------------------------------------------------------
A-----------------------------------------------------------------------------------
E--6-7--9-10------------6-7--9-10---------------------------------------------------

x1
E-----------------------------------------------------------------------------------
B-----------------------------------------------------------------------------------
G-----------------------------------------------------------------------------------
D-----------------------------------------------------------------------------------
A-----------------------------10-9------9-8---7-5-----------------------------------
E--6--7----9--10----6-7--9-10------7-10-----------7-5-7-----------------------------

x1
E-----------------------------------------------------------------------------------
B-----------------------------------------------------------------------------------
G-----------------------------------------------------------------------------------
D-----------------------------------------------------------------------------------
A----------------------------10-9-------9-8-----------------------------------------
E--6--7---9--10----6-7--9-10-------7-10---------------------------------------------

x1
E-----------------------------------------------------------------------------------
B-----------------------------------------------------------------------------------
G-----------------------------------------------------------------------------------
D-----------------------------------------------------------------------------------
A---------------------------10-9------9-8---7-5-------------------------------------
E--6--7----9--10--6-7--9-10------7-10------------7-5-7------------------------------

x2
E-----------------------------------------------------------------------------------
B-----------------------------------------------------------------------------------
G-----------------------------------------------------------------------------------
D--9-7------------------------------------------------------------------------------
A------9-7-------8-7-8-7-8-7-8-7----5-7---------5-7---------------------------------
E----------10-7--------------------------7-5-7--------7-5-7-------------------------

Comments