Каким ты был.

Artist: Народные (Russian)
User: dmitrijborisov1967
Duration: 130 seconds
Delay: 12 seconds
Chord names: Not defined
Abusive:
Comment: -

URL

Updated last time:
reedvu1969,
March 25, 2018, 1:28 PM

Text

Вступление:
E|-----------------------------|------------------------|
B|-----------------------------|------------------------|
G|-----------------------------|----------2-----0-------|
D|----0-------------3--2p0-2---|-------2------2---3p2-0-|
A|-0-----3p2-0---0-----------0-|-0--3-------------------|
E|-----------------------------|------------------------|

E|-------------------------------|--------------------|
B|-------------------------------|--------------------|
G|----3-2--------3-3--2--1--2----|-2-0----------------|
D|-0-------0--0----------------0-|-----3-2----0-------|
A|-------------------------------|----------3---3p2-0-|
E|-------------------------------|--------------------|
 Dm        Am    Dm     Am
Каким ты был, таким остался,
        A7            Dm  A7
Орел степной, казак лихой!..
  A7      Dm     Gm    A7      Dm
Зачем, зачем ты снова повстречался,   
  Dm6    Am     E7   Am                 
Зачем нарушил мой покой?              

 Dm     Am    Dm     Am
Зачем опять в своих утратах
        A7         Dm  A7
Меня хотел ты обвинить?
   A7      Dm     Gm    A7      Dm
В одном, в одном я только виновата,
  Dm6    Am     E7   Am                 
Что нету сил тебя забыть.

 Dm        Am    Dm     Am
Свою судьбу с твоей судьбою
          A7           Dm  A7
Пускай связать я не могла,
     Dm    Gm    A7     Dm
Но я жила, жила одним тобою,
  Dm6    Am     E7    E Am                 
Я всю войну тебя ждала.

  Dm        Am    Dm     Am
Ждала, когда наступит сроки,
         A7          Dm  A7
Когда вернешься ты домой…
   A7    Dm     Gm    A7      Dm
И горьки мне, горьки твои упреки,
  Dm6    Am     E7    E  Am                 
Горячий мой, упрямый мой!
Вступление:
E|-----------------------------|------------------------|
B|-----------------------------|------------------------|
G|-----------------------------|----------2-----0-------|
D|----0-------------3--2p0-2---|-------2------2---3p2-0-|
A|-0-----3p2-0---0-----------0-|-0--3-------------------|
E|-----------------------------|------------------------|

E|-------------------------------|--------------------|
B|-------------------------------|--------------------|
G|----3-2--------3-3--2--1--2----|-2-0----------------|
D|-0-------0--0----------------0-|-----3-2----0-------|
A|-------------------------------|----------3---3p2-0-|
E|-------------------------------|--------------------|
  Dm        Am    Dm     Am
Твоя печаль, твоя обида,
        A7         Dm  A7
Твоя тревога ни к чему:
   A7   Dm     Gm     A7      Dm
Смотри, смотри, душа моя открыта,
  Dm6    Am     E7  E Am                 
Тебе открыта одному.

 Dm        Am    Dm     Am
Но ты взглянуть не догадался,
          p A7          Dm A7
Умчался вдаль, казак лихой…
   A7  Dm     Gm     A7     Dm
Каким ты был, Таким ты и остался,
  Dm6    Am     E7    E  Am                 
Но ты и дорог мне такой.

Comments