Open your eyes

Artist: Snow Patrol (English)
User: jonassmann
Duration: 131 seconds
Delay: 12 seconds
Chord names: Not defined
Abusive:
Comment: -

URL

Updated last time:
jonassmann,
August 4, 2017, 11:45 AM

Text

 G  C  Em  C  (2x) 

 G                   C     
   All this feels strange and untrue 
       Em                      C 
And I won't waste a minute without you
 G                 C     
   My bones ache, my skin feels cold 
         Em                     C 
And I'm getting so tired and so old 

 G             C 
   The anger swells in my guts 
       Em                          C 
And I won't feel these slices and cuts 
 G                   C 
   I want so much to open your eyes 
         Em                    C 
Cause I need you to look into mine

 G                     C                
  Tell me that you'll open your eyes, 
 Em                    C 
  tell me that you'll open your eyes [2x]

 G                       C 
  Get up, get out, get away from these liars 
            Em                          C 
Cause they don't get your soul or your fire
 G                         C 
  Take my hand, knot your fingers through mine 
           Em                               C 
And we'll walk from this dark room for the last time 

 G                    C 
  Every minute from this minute now 
       Em                    C 
We can do what we like anywhere 
 G                  C 
  I want so much to open your eyes 
       Em                    C 
Cos I need you to look into mine 

 G                     C                
  Tell me that you'll open your eyes, 
 Em                    C 
  tell me that you'll open your eyes [4x]

   G                      
D|-12-12-12-10-10-10-9-9-9-------------------|
A|------------------------12-12-12-10-10-10--|
E|-------------------------------------------|
   C                      
D|-12-12-12-10-10-10-9-9-9-------------------|
A|------------------------12-12-12-10-10-10--|
E|-------------------------------------------|
      Em                                        6x
D|-14-14-14-12-12-12-10-10-10-9-9-9-9-9-9----|
A|-------------------------------------------|
E|-------------------------------------------|      
      C                      
D|-12-12-12-10-10-10-9-9-9-------------------|
A|------------------------12-12-12-10-10-10--|
E|-------------------------------------------|

 G                   C 
   All this feels strange and untrue 
       Em                      C (1x)
And I won't waste a minute without you

Comments