Chasing Cars

Artist: Snow Patrol (English)
User: jonassmann
Duration: 105 seconds
Delay: 12 seconds
Chord names: Not defined
Abusive:
Comment: -

URL

Uploaded:
August 3, 2017, 3:58 PM

Text

Intro:

   A                         
e|------------------------|
B|------------------------|
G|--9-9-9-9-9-9-9-9-9-9-9-|
D|-7-7-7-7-7-7-7-7-7-7-7--|
A|------------------------|
E|------------------------|

   A                              A/G#             A/D 
e|------------------------------------------------------------------|
B|------------------------------------------------------------------|
G|--9-9-9-9-9-9-9-9-9-9-9-9-9-9-9-9-9-9-9-9-9-9-9-9-9-9-9-9-9-9-9-9-|
D|-7-7-7-7-7-7-7-7-7-7-7-7-7-7-7-7-6-6-6-6-6-6-6-6-0-0-0-0-0-0-0-0--|
A|------------------------------------------------------------------|
E|------------------------------------------------------------------|

 A 


 A              A/G#           A/D              A 
We'll do it all,    everything,     on our own.
 A             A/G#          A/D             A 
We don't need      anything,     or anyone.

          A              E/G#       
If I lay here, if I just lay here
            A/D                               A 
Would you lie with me, and just forget the world.


 A                 A/G#            A/D            A 
I don't quite know      how to say    how I feel.
 A               A/G#                A/D               A 
Those three words,     I said too much, but not enough.


          A               E/G#       
If I lay here, if I just lay here
           A/D                                 A 
Would you lie with me, and just forget the world.
                   A                E/G# 
Forget what we're told, before we get too old
        D                       A 
Show me a garden that's bursting into life.

 A               A/G#             A/D               A 
Let's waste time,    chasing cars,    around our heads.


          A               E/G#       
If I lay here, if I just lay here
             A/D                              A 
Would you lie with me, and just forget the world.

           A              E/G#       
All that I am, all that I ever was 
              A/D                                A 
Is here in your perfect eyes, they're all I can see
               A                    E/G# 
I don't know where, confused about how as well
                    D                         A 
just know that these things will never change for us at all.


          A               E/G#       
If I lay here, if I just lay here
            A/D                               A 
Would you lie with me, and just forget the world.


Comments