I'm the fool

Artist: Mark Knopfler (English)
User: Eric BILLARD
Duration: 268 seconds
Delay: 5 seconds
Chord names: Default
Abusive:
Comment:
Transcrit par Franck Birambaux

URL

Uploaded:
July 18, 2017 12:53 PM

Text

 Intro  
C       Cadd9     C     Cadd9
-0-0---3---3-3-|-0-0---3---3-3-||
-1-1---1---1-1-|-1-1---1---1-1-||
-0-0---0---0-0-|-0-0---0---0-0-|| :
-2-2---0---0-0-|-2-2---0---0-0-||
-3-3---3---3-3-|-3-3---3---3-3-||
---------------|---------------||
 
 
---
-3-
-0- Csus4
-2-
-3-
---
Verse 1 :
 
    C     Csus4       G      F
  I never thought I'd be the one
 G                  C
  To be the raging bull
           C      Csus4 G       F
  There'd always be a  smoking gun
 G                        C     Cadd9
  Who'd up and loose his cool
 F
  I never thought I'd have to say
       C               Am
  I'm sorry my love because
   C              G
  I'm the fool I never    
   F      G               C   Cadd9     C  Cadd9   C Cadd9
  Fool I never thought I was
 
Verse 2 = verse 1
I left my dreams with broken strings
it's time I learnt to talkstop falling over things
teach myself to walkI'm not a superman
or mr. wonderful, becauseI'm the fool I never
fool I never thought I was
 
SLO :
---------|-------------|-------|---------------|---------|-----------|-----|-----0-|
---1-3-5-|-5-6---5^6^5-|-3-5-6-|-0-0-0-1-3-3 5-|---1-3-5-|-6---5^6^5-|-5-6-|-5-0-1-|
-0-------|-------------|-----5-|-0-0-0---------|-0-------|-----------|-----|-4-0---|
---------|-------------|-------|---------------|---------|-----------|-----|-------|
---------|-------------|-------|---------------|---------|-----------|-----|-------|
---------|-------------|-------|---------------|---------|-----------|-----|-------|
 
-0---|-|---1-1-|---1^3-1-|----3---1-0-------|-------|-----0-1-|-0^1^0---0-1-|-------------|
---1-|-|-------|---------|---5----3-1^3^1-0-|-1^3^1-|---1-----|-------3-----|-3---1-0-1-3-|
-----|-|-2-----|-2-------|-5----------------|-------|-0-------|---------2-2-|-0-x---0-----|
-----|-|-------|---------|------------------|-------|---------|-------------|-------------|
-----|-|-------|---------|------------------|-------|---------|-------------|-------------|
-----|-|-------|---------|------------------|-------|---------|-------------|-------------|
 
---|-|
-1-|-|
---|-|
---|-|
---|-|
---|-|
 
Bridge:
 F
  I'm the know it all
 C                    G      C
  Trying to mend his broken heart
       F
  But I  don't know who to call
 G                G
  And I don't know where to start
 
 
    C     Csus4       G      F
now if you should lose your faith in me 
 G                  C
I don't know where I'd run
           C      Csus4 G      F
I hope you'll always let me be your only one
 G                        C     Cadd9
am I your one true love  F
or am I too late for your applause 
       C               Am
I'm the fool I never fool
 C                      G        C       Dm7  C  G
 I never thought I was darling, I'm the fool I never
 F      G              C
fool I never thought I as
 
 C  Cadd 9   C  Cadd9

Comments