12 bar blues exercise

Artist: Traditional (English)
User: Joy Moreton
Duration: 130 seconds
Delay: 12 seconds
Chord names: Not defined
Abusive:
Comment: -

URL

Updated last time:
Joy Moreton,
June 10, 2017, 3:21 PM

Text

12 bar blues in A  stretch exercise 
pick  down up on each note
 A 
D------------------------------4-----5-------4-----------------------
A---------------4-------7-----------------------------7------4-------
E-----5----------------------------------------------------------------

D------------------------------4-----5-------4-----------------------
A---------------4-------7-----------------------------7------4-------
E-----5----------------------------------------------------------------

D------------------------------4-----5-------4-----------------------
A---------------4-------7-----------------------------7------4-------
E-----5----------------------------------------------------------------

D------------------------------4-----5-------4-----------------------
A---------------4-------7-----------------------------7------4-------
E-----5----------------------------------------------------------------

 D 
G------------------------------4-----5-------4-----------------------
D---------------4-------7-----------------------------7------4-------
A-----5--------------------------------------------------------------=-
E-----------------------------------------------------------------------
 
G------------------------------4-----5-------4-----------------------
D---------------4-------7-----------------------------7------4-------
A-----5--------------------------------------------------------------=-
E-----------------------------------------------------------------------
 
 A 
D------------------------------4-----5-------4-----------------------
A---------------4-------7-----------------------------7------4-------
E-----5----------------------------------------------------------------

D------------------------------4-----5-------4-----------------------
A---------------4-------7-----------------------------7------4-------
E-----5----------------------------------------------------------------

 E 
G----------------------------6----7-----6----------------------------
D------------6-------9----------------------------9------6-----------
A------7--------------------------------------------------------------
E---------------------------------------------------------------------

 D 

G------------------------------4-----5-------4-----------------------
D---------------4-------7-----------------------------7------4-------
A-----5--------------------------------------------------------------=-
E-----------------------------------------------------------------------

 A 

D------------------------------4-----5-------4-----------------------
A---------------4-------7-----------------------------7------4-------
E-----5----------------------------------------------------------------

 
D------------------------------4-----5-------4-----------------------
A---------------4-------7-----------------------------7------4-------
E-----5----------------------------------------------------------------

 E Chord turnaround and start again

Comments