Monster (tabs&text)

Artist: Skillet (English)
User: Dmitry
Duration: 210 seconds
Delay: 12 seconds
Chord names: Not defined
Abusive:
Comment:
Play in drop C or drop D.

URL

Updated last time:
Dmitry,
August 23, 2017, 11:40 AM

Text

Intro x2/Verse 1 *x3

D|---------------|--------------|--------------|-----------|
A|---------------|--------------|--------------|-----------|
F|---------------|--------------|--------------|-----------|
C|--5-5-5-0-0x-0-|-8-8-8-0-0x-0-|-5-5-5-0-0x-0-|-7-10-5-3--|
G|--5-5-5-0-0x-0-|-8-8-8-0-0x-0-|-5-5-5-0-0x-0-|-7-10-5-3--|
C|--5-5-5-0-0x-0-|-8-8-8-0-0x-0-|-5-5-5-0-0x-0-|-7-10-5-3--|

The secrets inside of me, 
I never let you see, 
I keep it caged  
But I can't control it.

So stay away from me, 
The beast is ugly, 
I feel the rage 
and I just can't hold it.

It's scratching on the walls, 
In the closets, In the halls, 
It comes awake and I can't control it.

D|---------------|--------------|--------------|-----------------|--------------------------|
A|---------------|--------------|--------------|-----------------|--------------------------|
F|---------------|--------------|--------------|-----------------|--------------------------|
C|--5-5-5-0-0x-0-|-8-8-8-0-0x-0-|-5-5-5-0-0x-0-|-8-8-8-8-8-8-8-8-|-10-10-10-10-10-10-10-10--|
G|--5-5-5-0-0x-0-|-8-8-8-0-0x-0-|-5-5-5-0-0x-0-|-8-8-8-8-8-8-8-8-|-10-10-10-10-10-10-10-10--|
C|--5-5-5-0-0x-0-|-8-8-8-0-0x-0-|-5-5-5-0-0x-0-|-8-8-8-8-8-8-8-8-|-10-10-10-10-10-10-10-10--|

Hiding under the bed, 
In my body, In my head. 
Why won't somebody come and save me from this, 
Make it end! 

Chorus *x2

D|-----------|----------|----------|-----------|
A|-----------|----------|----------|-----------|
F|-----------|----------|----------|-----------|
C|--00000000-|-33333333-|-88888888-|-7-10-5-3--|
G|--00000000-|-33333333-|-88888888-|-7-10-5-3--|
C|--00000000-|-33333333-|-88888888-|-7-10-5-3--|

I feel it deep within, 
It's just beneath the skin, 
I must confess that I feel like a monster. 

I hate what I've become, 
The nightmare's just begun, 
I must confess that I feel like a monster. 

*x2
D|------------|-----------|
A|------------|-----------|
F|------------|-----------|
C|--00x0-33x3-|-88x8-5-7--|
G|--00x0-33x3-|-88x8-5-7--|
C|--00x0-33x3-|-88x8-5-7--|

I,  I  feel like a monster. 
I,  I  feel like a monster. 

Post-chorus x1/Verse 2 *x1

D|---------------|--------------|--------------|-----------|
A|---------------|--------------|--------------|-----------|
F|---------------|--------------|--------------|-----------|
C|--5-5-5-0-0x-0-|-8-8-8-0-0x-0-|-5-5-5-0-0x-0-|-7-10-5-3--|
G|--5-5-5-0-0x-0-|-8-8-8-0-0x-0-|-5-5-5-0-0x-0-|-7-10-5-3--|
C|--5-5-5-0-0x-0-|-8-8-8-0-0x-0-|-5-5-5-0-0x-0-|-7-10-5-3--|

My secrets that I keep, 
Hiding under lock and key, 
I keep it caged but I can't control it. 

x1

D|---------------|--------------|--------------|-----------------|--------------------------|
A|---------------|--------------|--------------|-----------------|--------------------------|
F|---------------|--------------|--------------|-----------------|--------------------------|
C|--5-5-5-0-0x-0-|-8-8-8-0-0x-0-|-5-5-5-0-0x-0-|-8-8-8-8-8-8-8-8-|-10-10-10-10-10-10-10-10--|
G|--5-5-5-0-0x-0-|-8-8-8-0-0x-0-|-5-5-5-0-0x-0-|-8-8-8-8-8-8-8-8-|-10-10-10-10-10-10-10-10--|
C|--5-5-5-0-0x-0-|-8-8-8-0-0x-0-|-5-5-5-0-0x-0-|-8-8-8-8-8-8-8-8-|-10-10-10-10-10-10-10-10--|

Cause if I let him out, 
he'll turn me up, break me down, 
Why won't somebody come and save me from this 
Make it end. 

Chorus *x3

D|-----------|----------|----------|-----------|
A|-----------|----------|----------|-----------|
F|-----------|----------|----------|-----------|
C|--00000000-|-33333333-|-88888888-|-7-10-5-3--|
G|--00000000-|-33333333-|-88888888-|-7-10-5-3--|
C|--00000000-|-33333333-|-88888888-|-7-10-5-3--|

I feel it deep within, 
It's just beneath the skin, 
I must confess that I feel like a monster. 

I hate what I've become, 
The nightmare's just begun, 
I must confess that I feel like a monster. 

I feel it deep within, 
It's just beneath the skin, 
I must confess that I feel like a monster.

*x2

D|------------|-----------|
A|------------|-----------|
F|------------|-----------|
C|--00x0-33x3-|-88x8-5-7--|
G|--00x0-33x3-|-88x8-5-7--|
C|--00x0-33x3-|-88x8-5-7--|

I,  I  feel like a monster. 
I,  I  feel like a monster. 

Bridge

D|-----------|----------|----------|-----------|
A|-----------|----------|----------|-----------|
F|-----------|----------|----------|-55555555--|
C|--55555555-|-00000000-|-33333333-|-55555555--|
G|--55555555-|-00000000-|-33333333-|-33333333--|
C|--55555555-|-00000000-|-33333333-|-----------|

It's hiding in the dark, 
It's teeth are razor sharp, 
There's no escape for me, 
It wants my soul, It wants my heart. 

D|-----------|----------|----------|-----------|
A|-----------|----------|----------|-----------|
F|-----------|----------|----------|-----------|
C|--55555555-|-00000000-|-77777777-|-7-10-5-3--|
G|--55555555-|-00000000-|-77777777-|-7-10-5-3--|
C|--55555555-|-00000000-|-77777777-|-7-10-5-3--|

No one can hear me scream, 
Maybe it's just a dream, 
Or maybe it's inside of me, 
Stop this monster.

Fill

D|-----------|----------|-------------------|
A|-----------|----------|-------------------|
F|-----------|----------|-------------------|
C|--00000000-|-33333333-|-1010101010101010--|
G|--00000000-|-33333333-|-1010101010101010--|
C|--00000000-|-33333333-|-1010101010101010--|

Chorus *x4
D|-----------|----------|----------|-----------|
A|-----------|----------|----------|-----------|
F|-----------|----------|----------|-----------|
C|--00000000-|-33333333-|-88888888-|-7-10-5-3--|
G|--00000000-|-33333333-|-88888888-|-7-10-5-3--|
C|--00000000-|-33333333-|-88888888-|-7-10-5-3--|

I feel it deep within, 
It's just beneath the skin, 
I must confess that I FEEL LIKE A MONSTER. 

I hate what I've become, 
The nightmare's just begun, 
I must confess that I feel like a monster. 

I feel it deep within, 
It's just beneath the skin, 
I must confess that I feel like a monster. 

I'm 'bout to lose control, 
It's something radical, 
I must confess that I feel like a monster. 

*x2

D|---------|-----------|
A|---------|-----------|
F|---------|-----------|
C|--00--33-|-88-8-5-7--|
G|--00--33-|-88-8-5-7--|
C|--00--33-|-88-8-5-7--|

I,  I feel  like a monster. 
I,  I feel  like a monster. 

*x2

D|------------|-----------|
A|------------|-----------|
F|------------|-----------|
C|--00x0-33x3-|-88x8-5-7--|
G|--00x0-33x3-|-88x8-5-7--|
C|--00x0-33x3-|-88x8-5-7--|

I,  I feel  like a monster. 

Comments