La mélodie des tuyaux - No me siento feliz

Artist: Alex El Rubio (Spanish)
User: Thaubateau
Duration: 240 seconds
Delay: 12 seconds
Chord names: Not defined
Abusive:
Comment: -

URL

Uploaded:
May 8, 2017, 12:09 PM

Text

Capo : 6

 Em                                                   
|--------------------------|--------------------------|
|--------------0-----------|--------------0-----------|
|--------0--------0-----0--|--------0--------0-----0--|
|-----2-----2--------2-----|-----2-----2--------2-----|
|--------------------------|--------------------------|
|--0-----------------------|--0-----------------------|

    Em/G                                                 
|--------------------------|--------------------------|
|--------------0-----------|--------------0-----------|
|--------0--------0-----0--|--------0--------0-----0--|
|-----2-----2--------2-----|-----2-----2--------2-----|
|--------------------------|--------------------------|
|--3-----------------------|--3-----------------------|

    Am                                                   
|--------------------------|--------------------------|
|--------------1-----------|--------------1-----------|
|--------2--------2-----2--|--------2--------2-----2--|
|-----2-----2--------2-----|-----2-----2--------2-----|
|--0-----------------------|--0-----------------------|
|--------------------------|--------------------------|

    Bm/5#                                               
|--------------------------|--------------------------|
|--------------3-----------|--------------3-----------|
|--------0--------0-----0--|--------0--------0-----0--|
|-----4-----4--------4-----|-----4-----4--------4-----|
|--2-----------------------|--2-----------------------|
|--------------------------|--------------------------|

 Em 
Navego entre las nubes
 Em/G 
Nadando entre los peces
 Am 
Buscándote en las calles
 Bm/5# 
Te he elegido entre mis amores

 Em 
Vuelve te compré unas flores
 Em/G 
Libérame de estas cárceles
 Am 
Mi alma te ofrece las llaves
 Bm/5# 
De mi corazón coliflores

[REFRAIN]
                Em 
No me siento feliz
                    Em/G 
Ni me salen las palabras
                   Am 
Lo que siento por ti
                   Bm/5# 
Es algo tan especial

[Passer à un Rythme Gitan/Rumba/Latino]
 C            D 
Llámame espérame
 G                 Em 
Pa que mi mío se vacíe
 C              D 
No tengo diamantes
 G               Em 
Sino sueños a crecer
              C 
Déjame la suerte
 Cadd9/B         Am 
De hacer de mi querer
               Bm7 
Un océano de placer
     B7 
Una fuente


[REFRAIN 2X]
                Em 
No me siento feliz
                    C 
Ni me salen las palabras
                   Am 
Lo que siento por ti
                Bm7       ... Emadd9  
Es algo tan especial

Comments