Shine

Artist: Collective Soul (English)
User: ehmaeh12
Duration: 130 seconds
Delay: 12 seconds
Chord names: Default
Abusive:
Comment: -

URL

Uploaded:
February 16, 2017, 8:20 AM

Text

Difficulty
Tuning
Acdcdrummerjake 83 intermediate D#  G#  C#  F#  A#  D# 
About this tab version
My Version of Shine not only contains a simple chord chart of the song, but it gives some very easy tabs for Riff in the Beginning and Bridge of the song. Was this info helpful? Yes No
I saw there wasnt a good chord tab for this so i decided to figure it out myself some of 
may be wrong... probably is but i did what i could. Have a blast impress your friends, 
dog idc go to town.

EDIT: I Revised and decided to put tabs for the Verse and Chorus in because they're simple and Fun! Some of 
The chords still may be a bit funky or not line up but from what i tell they could be a good starting point 
for a beginner. Anyways, Enjoy! Rate, Comment, Let me know of any corrections you may have. 

Half Step Down Eb. Drop Db (Drop D-Flat) 
Opening Riff & Verse

E----------------------------------------------------------------------------------------------- 
B-----------------------------------------------------------------------------------------------
G--9-11-11-9-7-7---9-11-14-7-9-11---------------------------------------------------------------*
D--0-0--0--0-0-0---0--0--0-0-0--0---------------------------------------------------------------*REPEAT
A----------------------------------10-0-0-10-0-10-0-0-10-0-10-------5-0-0-5-0-5-0-0-5-0-5-0-----
D----------------------------------10-0-0-10-0-10-0-0-10-0-0--------5-0-0-5-0-5-0-0-5-0-5-0-----


[Verse]

 D 
Give me a word

Give me a sign

Show me where to look
                    C                 G 
Tell me what will I find (What will I find?)~
 D 
Lay me on the ground

Fly me in the sky

Show me where to look
                    C                 G 
Tell me what will I find (What will I find?)


[Bridge]

E-------------------------------------------------------------
B-------------------------------------------------------------
G-------------------------------------------------------------  X2
D-------------------------------------------------------------
A--0--0-0-3-0-0-3-0-0-3-0-5---0--0-0-3-0-0-3-0-0-3-0-5-7------
D--0--0-0-3-0-0-3-0-0-3-0-5---0--0-0-3-0-0-3-0-0-3-0-5-7------


D-D-D-F-D-F-D-F-D-G---D-D-D-F-D-F-D-F-D-G-A(flat)-  X2
                   Yeah 
*chorus*
 C  G                            D 
Oh,Heaven let your light shine down (x4)


[Verse]

 D 
Love is in the water

Love is in the air

Show me where to look
                     C                   G 
Tell me will love be there (Will love be there?)
 D 
Teach me how to speak

Teach me how to share

Teach me where to go
                     C                   G 
Tell me will love be there (Will love be there?)


[Chorus]


D-D-D-F-D-F-D-F-D-G---D-D-D-F-D-F-D-F-D-G-A(flat)-  X2
Yea, Yea, Yea
 C  G                            D 
Oh, Heaven let your light shine down (x4)


[Verse]

 D 
Give me a word

Give me a sign

Show me where to look
                    C                 G 
Tell me what will I find (What will I find?)~
 D 
Lay me on the ground

Fly me in the sky

Show me where to look
                    C                 G 
Tell me what will I find (What will I find?)


[Chorus]

 G 
Yea, Yea, Yea

 C  G                             D 
Oh, Heaven let your light shine down (x4)


[Outro]

             C 
I'm going to let it shine
             G 
I'm going to let it shine
 D 
Heavens little light gonna shine on me
 C 
Yea yea
 G 
Yea yea
 D 
heavens little light gonna shine on me
 C  G            D 
shine, shine on me
 C  G            D 
shine, shine on me
 C  G               G 
shine, come on and shine

Comments