COME TOGETHER

Artist: Beatles (English)
User: tresmilbert28
Duration: 130 seconds
Delay: 12 seconds
Chord names: Not defined
Abusive:
Comment: -

URL

Uploaded:
December 3, 2016, 5:55 AM

Text

[Intro]

e|------------1--------------|
B|------------1--3-----------|
G|------0h2------------------|
D|0--0-----------------------| x4
A|---------------------------|
E|---------------------------|


[Verse]

 Dm 
Here come old flat top, He come grooving up slowly,
 Dm 
He got Joo Joo eyeball, He one holy roller 
        A7              
He got  Hair down to his knee;  
 G7 
Got to be a joker, he just do what he please.


[Instrumental]         
                          
e|------------1--------------|
B|------------1--3-----------|
G|------0h2------------------| x2
D|0--0-----------------------|
A|---------------------------|
E|---------------------------|
 

[Verse]

 Dm                      
He wear no shoe shine, he got toe jam football
 Dm 
He got monkey finger, he shoot co-ca cola
        A7 
He say, "I know you, you know me."  
 G7 
One thing I can tell you is you got to be free


[Chorus]

     Bm              G 
Come Together, Right now, over me


[Instrumental]
                         
e|------------1--------------|
B|------------1--3-----------|
G|------0h2------------------| x2
D|0--0-----------------------|
A|---------------------------|
E|---------------------------|
     
               
[Verse]

 Dm 
He bag production, He got wal-rus gumboot
 Dm 
He got O-no sideboard, He one spinal cracker
       A7 
He got feet down below his knee
 G7 
Hold you in his armchair, you can feel his disease 


[Chorus]

     Bm              G 
Come together, right now,  over me


[Instrumental]
                         
e|------------1--------------|
B|------------1--3-----------|
G|------0h2------------------| x2
D|0--0-----------------------|
A|---------------------------|
E|---------------------------|
     

[Verse]

 Dm 
He roller coaster, he got early warning
 Dm 
He got muddy water, He one Mo-jo filter
        A7 
He say, " One and one and one is three."
 G7 
Got to be good looking 'cause he so hard to see 


[Chorus]

     Bm 
Come together, Right now, over me
 

Comments