Scared To Death

Artist: KZ Tandingan (Filipino)
User: Mark Justin Crisostomo
Duration: 150 seconds
Delay: 20 seconds
Chord names: Default
Abusive:
Comment: -

URL

Uploaded:
November 23, 2016, 5:42 PM

Text

|=========================================|
|Before Playing this tab, I would like to |
|give Credits to Mr/Ms."MishyelleMarie 31"|
|for his/her Chords. I just added some    |
|Improvement and chords.                  |
|=========================================|


First: INTRO/VERSE/Chorus

    D                  A 
e|--------------0--||--------------0--|
B|--3---2---3------||--3---2---3------|
G|----2---2---2----||----2---2---2----|
D|--0--------------||--2--------------|
A|-----------------||-----------------|
E|-----------------||-----------------|

    Bm                 G 
e|--------------0--||--------------0--|
B|--3---2---3------||--3---2---3------|
G|----4---4---4----||----0---0---0----|
D|-----------------||-----------------|
A|--2--------------||-----------------|
E|-----------------||--3--------------|

First: Pre Chorus

    G                   Bm             
e|--------------0--||--------------0--|
B|--3---2---3------||--3---2---3------|
G|----0---0---0----||----4---4---4----|
D|-----------------||-----------------|
A|-----------------||--2--------------|
E|--3--------------||-----------------|

    G                  A 
e|--------------0--||--------------0--|
B|--3---2---3------||--3---2---3------|
G|----0---0---0----||----2---2---2----|
D|-----------------||--2--------------|
A|-----------------||-----------------|
E|--3--------------||-----------------|

II.
 D           A 
Somethings changin'
 Bm                  G 
Giving me fears run through my head
 D     A 
Only find me
 Bm                      G 
Give me the eyes I will understand

Pre-Chorus: 2
 G     A    Bm 
Words left unsaid
 G                      A 
Leaving me weak in the edge
 G   A   Bm 
Getting over
 G         
I'm running scared
 A                   A7(once)
I can't comprehend

CHORUS 2: 
                     D 
'Cause I'm scared to death
             A 
Now that I'm losin' you
              Bm 
I'm scared to death
          A 
Knowin' I can't get through
              G 
I'm scared to death
            A                  G      A 
Living this so lonely life without you
                D 
,I'm scared to death
           A 
Fallin' in love with you
              Bm 
I'm scared to death
                     A 
There's nothing that I can do
              G 
I'm scared to death
            A               G 
What if you won't be around anymore

Pre-Chorus:3

 G   A 
Slowly
 Bm 
Gently
 G                       A 
Choosing me will make me then
 G      A       Bm 
You're one and only
 G                        A 
I pray that our love will begin

|================================|
|(Itinaas ko ng 1 fret yung mga  |
|chords dito, if you want to keep|
|it the same way, its up to you  |
|iniba ko lang para may ipact for|
|the last part ng song)          |
|================================|
(ito yung tab ng E/B: 779997) 

CHORUS:4
                     E/B 
'Cause I'm scared to death
             B 
Now that I'm losin' you
              C#m 
I'm scared to death
          B 
Knowin' I can't get through
              A 
I'm scared to death
            B                      A  B 
Living this so lonely life without you
              E/B 
I'm scared to death
(Na na na na na na)
 B 
I'm so scared
 C#m 
(Na na na na na na)
 A 
I'm so scared
 E/B         B                  C#m          A 
What if you won't be, won't be around anymore
 E/B (Isang Strum)
I'm scared to death

|=========================|
|Hi nga pala kay "Yats"   |
|lagi niya kasi kinakanta |
|'to ei :) Thank you for  |
|Inspiring me Everyday :) |
|-Chips (You Know Me)     |
|=========================|

Comments