ALL THE SMALL THINGS

Artist: Blink-182 (English)
User: Mc Kinley
Duration: 9999 seconds
Delay: 0 seconds
Chord names: Default
Abusive:
Comment: -

URL

Uploaded:
November 20, 2016 2:28 PM

Text

Intro (x2):

e|-------------------------------------------------------|
B|-------------------------------------------------------|
G|-----------------5--------10---------------------------|
D|-(5)-----(3)-----5 (x8)---10 (x8)---5--------3XXXXXX33-|
A|-(5)-----(3)-----3---------8--------5 (x8)---3XXXXXX33-|
E|-(3)-----(1)------------------------3--------1XXXXXX11-|

Verse (x4): (P. M.)

e|-----------------------------------|
B|-----------------------------------|
G|-5---------------------------------|
D|-5 (x8)---5--------3--------5------|
A|-3--------5 (x8)---3 (x8)---5 (x8)-|
E|----------3--------1--------3------|

"Say it ain't so..."  (let chord ring)

e|---|
B|---|
G|-5-|
D|-5-|
A|-3-|
E|---|

Chorus (x2):

e|---------------------------|
B|---------------------------|
G|-5-------------------------|
D|-5 (x12)---5--------3------|
A|-3---------5 (x8)---3 (x8)-|
E|-----------3--------1------|

Repeat Intro all same as 1st time except change as follows:

e|-------------------|
B|-------------------|
G|-10--------10------|
D|-10 (x4)---10 (x4)-|
A|-8----------7------|
E|-------------------|

Repeat verse (x4)

Break @ 1:45 (palm mute):

e|-------|
B|-------|
G|-5-----|
D|-----5-|
A|-------|
E|-------|

Outro(x4):

e|---------------------------------|
B|---------------------------------|
G|-5-------------------------------|
D|-5-(x12)------5-----------3------|
A|-3------------5 (x8)------3 (x8)-|
E|--------------3-----------1------|

All the, small things
True care, truth brings
I'll take, one lift
Your ride, best trip
Always, I know
You'll be at my show
Watching, waiting, commiserating
Say it ain't so, I will not go, turn the lights off,
carry me home

Na, na...

Late night, come home
Work sucks, I know
She left me roses by the stairs, surprises let me know she cares
Say it ain't so, I will not go, turn the lights off,
carry me home

Na, na...

Say it ain't so, I will
not go, turn the lights off, carry me home
Keep your head still, I'll be your thrill,
the night will go on, my little windmill
Say it ain't so, I will not go, turn the lights off,
carry me home
Keep your head still, I'll be your thrill,
the night will go on, my little windmill

Comments