À la faveur de l'automne

Artist: Tété (French)
User: Thaubateau
Duration: 130 seconds
Delay: 12 seconds
Chord names: Not defined
Abusive:
Comment: -

URL

Updated last time:
KOT72,
November 15, 2016 7:12 AM

Text

    Em        B7       G          Am        C         B7      Em  
e|--------|--------|--------|---------|---------|---------|--0---|
B|------0-|------0-|------0-|------0--|------0--|------0--|--0---|
G|----0---|----0---|----0---|----0----|----0----|----0----|--0---|
D|--2-----|--1-----|--0-----|--3------|---------|--1------|--2---|
A|--------|--------|--------|---------|--3------|---------|--2---|
E|--------|--------|--------|---------|---------|---------|--0---|


 Em    B7                   G           Am          
Posté devant la fenêtre je guette les âmes esseulées
  C           B7     Em     Em 
 à la faveur de l'automne.
 Em    B7                     G             Am        
Posté devant la fenêtre je regrette de n'y avoir songé
  C                B7    G      G 
 maintenant que tu a-bandonnes.


 C      B7                          Am 
A la faveur de l'automne revient cette douce mélancolie.
 C        B7                       Am 
- 1, 2,  3, 4, un peu comme on fredonne de vieilles mélodies.


 Em    B7                      G            Am    
Rivé  devant le téléphone j'attends que tu daignes
            C           B7      Em  Em 
 m'appeler que tu te décides enfin
 Em      B7                         G     
Toi tes allures de garçonne m'emprisonnent
        Am        C               B7     G     G 
 de la monotonie de mes journées de mes nuits.


 C      B7                          Am 
A la faveur de l'automne revient cette douce mélancolie.
 C        B7                       Am 
- 1, 2,  3, 4, un peu comme on fredonne de meilleures mélodies.
 C      B7                       Am 
A la faveur de l'automne tu redonnes à ma mélancolie
 C         B7                 Am 
- Ses couleurs de super scopito o o one   Oh Oh Oh ...


 Em      B7                            G          Am         
Comment ai-je pu seul'ment être aussi bête on m'avait prévenu
  C          B7   Em      Em 
 voici la vérité nue. Hé là  hé là
 Em         B7                            G         Am            
Manqu'rait plus que le mauvais temps s'y mette une goutte de pluie
     C                 B7      G  G 
 et j'aurais vraiment tout perdu.


 C      B7                          Am 
A la faveur de l'automne revient cette douce mélancolie.
 C        B7                       Am 
- 1, 2,  3, 4, un peu comme on fredonne de meilleures mélodies.
 C      B7                       Am 
A la faveur de l'automne tu redonnes à ma mélancolie
 C         B7                 Am 
- Ses couleurs de super scopito o o one   Oh Oh Oh ...


   Em      B7       G         Am         C        B7         Em 
e|--------|--------|--------|---------|---------|---------|--0---|
B|------0-|------0-|------0-|------0--|------0--|------0--|--0---|
G|----0---|----0---|----0---|----0----|----0----|----0----|--0---|
D|--2-----|--1-----|--0-----|--3------|---------|--1------|--2---|
A|--------|--------|--------|---------|--3------|---------|--2---|
E|--------|--------|--------|---------|---------|---------|--0---|

Comments