Comme toi

Artist: Jean-Jacques Goldman (French)
User: Thaubateau
Duration: 130 seconds
Delay: 12 seconds
Chord names: Default
Abusive:
Comment: -

URL

Updated last time:
KOT72,
November 15, 2016, 7:34 AM

Text

Intro:
 Dm                                        Gm 
----------1--0------------------1-----------------3------------
-------3--------3------------3-------3---------3-------3-------
----2---------------------2-----------------0-------------0----
-0---------------------0-----------------5---------------------
---------------------------------------------------------------
---------------------------------------------------------------

 Asus4 
----------3-------------------0-----------------------0--1--0--
-------3-------3-----------3-----3-----3-----------2-----------
----0-------------0-----2-----------2-----2-----2--------------
-5-------------------------------------------------------------
---------------------0-----------------------0-----------------
---------------------------------------------------------------

 Dm 
----------------1--------0--------------1----------------------
-3--2--------3-----3--------3--------3-------------------------
----------2-----------2-----------2-----------2-----2----------
-------0-----------------------0-----------0-----0-------------
---------------------------------------------------------------
---------------------------------------------------------------

 Dm 
Elle avait les yeux clairs et la robe en velours
 Gm 
 A cote de sa mere et la famille autour
 Asus4                                Dm 
Elle pose un peu distraite au doux soleil de la fin du jour

 Dm 
La photo n'est pas bonne mais l'on peut y voir
 Gm 
Le bonheur en personne et la douceur d'un soir
 Asus4                            Dm 
Elle aimait la musique surtout Shuman et puis Mozart

 Gm           A7           Dm           Gm 
Comme toi
comme toi
comme toi
comme toi
 Gm           A7           Dm           Gm 
Comme toi
comme toi
comme toi
comme toi
 Gm          A7             Dm 
Comme toi que je regarde tout bas
 Gm          A7              Dm 
Comme toi qui dors en revant a quoi
 Bb          A7           Dm 
Comme toi
comme toi
comme toi
comme toi

 Dm 
Elle allait a l'ecole au village d'en bas
 Gm 
Elle apprenait les livres
elle apprenait les lois
 Asus4                                Dm 
Elle chantait les grenouilles et les princesses qui dorment au bois

 Dm 
Elle aimait sa poupee
elle aimait ses amis

 Gm 
Surtout Ruth et Anna et surtout Jeremy
 Asus4                        Dm 
Et ils se marieraient un jour peut etre a Varsovie

 Gm         A7         Dm         Gm 
Comme toi
comme toi
comme toi
comme toi
 Gm         A7         Dm         Gm 
Comme toi
comme toi
comme toi
comme toi
 Gm         A7           Dm 
Comme toi que je regarde tout bas
 Gm         A7            Dm 
Comme toi qui dors en revant a quoi
 Bb         A7         Dm 
Comme toi
comme toi
comme toi
comme toi



-----------1-5-10-88-66-55-88-6-5-3-1-0--------0-1-3-5-3-1-0---
---------3------------------------------3-2--3-----------------
------2-------------------------------------------------------
-0-2-3---------------------------------------------------------
---------------------------------------------------------------
---------------------------------------------------------------

---------------1-0---0-1-5-10--88-66-55-88-6-5-3-1-0-----------
-3-2-4*-2----------3---------------------------------32--------
-------------2------------------------------------------3212---
---------------------------------------------------------------
---------------------------------------------------------------
---------------------------------------------------------------

---0-1-3-5-3-1-0-----------------------------------------------
-3---------------3-2-3-------4---------------------------------
---------------------------------------------------------------
---------------------------------------------------------------
---------------------------------------------------------------
---------------------------------------------------------------


 Em 
Elle s'appelait Sarah
elle n'avait pas huit ans
 Am 
Sa vie
c'etait douceur
reves et nuages blancs
 Bsus4                         Em 
Mais d'autres gens en avaient decide autrement

 Em 
Elle avait tes yeux clairs et elle avait ton age
 Am 
C'etait une petite fille sans histoire et tres sage
 Bsus4                               Em 
Mais elle n'est pas nee comme toi
ici et maintenant


 Am           B7           Em           Am 
Comme toi
comme toi
comme toi
comme toi
 Am         B7         Em         Am 
Comme toi
comme toi
comme toi
comme toi
 Am          B7            Em 
Comme toi que je regarde tout bas
 Am         B7            Em 
Comme toi qui dors en revant a quoi
 C          B7         Em 
Comme toi
comme toi
comme toi
comme toi


Comme toi
comme toi
comme toi
comme toi

Comments