Iyong iyong iyo

Artist: Sponge Cola (Tagalog)
User: tresmilbert28
Duration: 130 seconds
Delay: 12 seconds
Chord names: Not defined
Abusive:
Comment: -

URL

Updated last time:
Alexander Suslov,
June 17, 2017, 8:17 PM

Text

IYONG IYONG IYO 
 Spongecola

Tabbed by: Monstoy Guitar

Check out the video tutorial of this song on my YouTube Channel!
YOUTUBE: https://www.youtube.com/channel/UC8UpBLYq8T0mkscMhkMyuAg       

Tuning: Half-step Down

GUITAR SOLO 1
e|---------------------------------------------------------------------------|
B|----------------12h13p12---------------------------------------------------|
G|-----------12------------14-12-12—12/14------------------------------------|
D|-----12h14-----------------------------------------------------------------| 
A|---------------------------------------------------------------------------|
E|---------------------------------------------------------------------------|

e|---------------------------------------------------------------------------|
B|---------------------------------------------------------------------------|
G|-----12h14p12------------12------------------------------------------------|
D|--------------14---12h14---------------------------------------------------|
A|---------------------------------------------------------------------------|
E|---------------------------------------------------------------------------|

e|---------------------------------------------------------------------------|
B|-----12h13p12------12h13p12------------------------------------------------|
G|--------------14------------14p12------------------------------------------|
D|----------------------------------14p12-14p12------------------------------|
A|---------------------------------------------------------------------------|
E|---------------------------------------------------------------------------|

e|---------------------------------------------------------------------------|
B|---------------------------------------------------------------------------|
G|-----------------12h14-12--------------------------------------------------|
D|-----------12h14-----------------------------------------------------------|
A|-----12h14-----------------------------------------------------------------|
E|---------------------------------------------------------------------------|

GUITAR SOLO 2
e|---------------------------------------------------------------------------|
B|------------12-12-13-13-/15------------------------------------------------|
G|-----/12-12-----------------12---------------------------------------------|
D|---------------------------------------------------------------------------|
A|---------------------------------------------------------------------------|
E|---------------------------------------------------------------------------|

e|------12-12----------------------------------------------------------------|
B|------------15-15-13-12-13-13/20-------------------------------------------|
G|---------------------------------------------------------------------------|
D|---------------------------------------------------------------------------|
A|---------------------------------------------------------------------------|
E|---------------------------------------------------------------------------|

e|---------------------------------------------------------------------------|
B|---------------20-20h22-20-20----------------------------------------------|
G|------19-19-21-------------------------------------------------------------|
D|---------------------------------------------------------------------------|
A|---------------------------------------------------------------------------|
E|---------------------------------------------------------------------------|

e|------------19-19-19-----------------------19-20-19------------------------|
B|------22-22----------22-22--22-22\20-20-22---------------------------------|
G|---------------------------------------------------------------------------|
D|---------------------------------------------------------------------------|
A|---------------------------------------------------------------------------|
E|---------------------------------------------------------------------------|


************************************

| /   slide up
| \   slide down
| h   hammer-on
| p   pull-off
| ~   vibrato
| +   harmonic
| x   Mute note
| b   Bend
| pb  Pre-bend
| br  Bend release
| pbr Pre-bend release
| brb Bend release bend


Chords used:

 G :    320x33
 G/D :  2x0233
 C9 :   x32033 or x30033
 Em7 :  x22033
 D :    x0x232


[Verse 1]

 G 
Hirap talikuran ng
 G/D 
Gan’tong pighati
 G 
Lunas sa iyong lungkot
 G/D 
Siya rin ang sanhi
 G 
Hindi ko mawaglit
 G/D 
Sa ‘king isip
 G 
Ang tanging niloloob
 G/D 
Ang laging hiling 
 C9 
Ng puso


[Chorus]

            G 
Titila rin ang ulan
            G/D 
Tatahan at daraan
           C9 
Pangako sayo, pangako sayo
         G           G/D 
Ako ay iyong iyong iyo 


[Instrumental]

 G - G/D - C9 - G - G/D 


[Verse 2]

 G 
‘Di ko sukat akalain
 G/D 
Makakarating
 G 
Bawat tibok ng akin
 G/D 
Tibok mo na rin
 C9 
Ng puso
 C9 
Ng puso


[Chorus]

            G 
Titila rin ang ulan
            G/D 
Tatahan at daraan
           C9 
Pangako sayo, pangako sayo
         G           G/D 
Ako ay iyong iyong iyo 
            G 
Sumpa ko walang hanggan
            G/D 
Maglaho man ang buwan
           C9 
Pangako sayo, pangako sayo
         G           G/D 
Ikaw at ako parin hanggang dulo


[Instrumental]

 G - G/D - C9 (x2)
 Em7 - C9 - D 


[Chorus]

            G 
Titila rin ang ulan
            G/D 
Tatahan at daraan
           C9 
Pangako sayo, pangako sayo
         G           G/D 
Ako ay iyong iyong iyo 
            Em7 
Sumpa ko walang hanggan
            G/D 
Maglaho man ang buwan
           C9 
Pangako sayo, pangako sayo
         G           G/D           G 
Ikaw at ako parin hanggang dulo
            G/D 
Ikaw at ako
           C9 
Ikaw at ako
  G     
Ikaw           
  G/B 
Ako

End on G 
 

Comments