TUPPERWARE PARTY

Artist: Rivermaya (Tagalog)
User: tresmilbert28
Duration: 130 seconds
Delay: 12 seconds
Chord names: Not defined
Abusive:
Comment: -

URL

Updated last time:
Alexander Suslov,
June 17, 2017, 10:01 PM

Text

-------------------------------------------------------------------------------
                        Tupperware Party- Rivermaya
-------------------------------------------------------------------------------
Tabbed by: MArk JEsson Galera
Email:boybassista@yahoo.com

---------------
STANDARD TUNING|
---------------


Chords used:

 A2   :  002200
 B2   :  X24400
 C#2  :  X46600
 E    :  022100

CHORDS USED IN TAB FORM PARA MAS MAINTINDIHAN NYO

   A2   B2   C#2  E 
e|-0--|-0--|-0--|-0---|
B|-0--|-0--|-0--|-0---|
G|-2--|-4--|-6--|-1---|
D|-2--|-4--|-6--|-2---|  
A|-0--|-2--|-4--|-2---|
E|-0--|-X--|-X--|-0---|






------
INTRO | A2-B2- C#2 ; 2X
------

         A2                        B2   -     C#2 
e|-4h5-4-4--4h5-4-4-(4)-4h5-4-|-----------------------|
B|----------------------------|-4h5-4-4--4--2-2-2-2-2-|
G|----------------------------|-----------------------|
D|----------------------------|-----------------------| 
A|----------------------------|-----------------------|
E|----------------------------|-----------------------|



          A2                     B2   -  C#2 
e|-4h5-4-4--4h5-4-4-(4)-4h5-4-|---------------|
B|----------------------------|-4h5-4-4--4--2-|
G|----------------------------|---------------|  
D|----------------------------|---------------|     
A|----------------------------|---------------|
E|----------------------------|---------------|




-------
Verse 1| Plucking lang dito
-------


 A2                B2         C#2     
Ewan ko ba kung anong meron ka

 A2                      B2     C#2 
Sa tuwing nakakasama ka ako'y naiiba

 A2                           B2- C#2 
Nais ko lang na ika'y maka-akbay

              A2                   B2- C#2 
Makalakad ng sabay, makahawak ng kamay



-------
Chorus | Walter Michael De la Cruz Rockz
-------

          A2           
Ngunit isang dangkal na lang

      B2       C#2 
Hindi pa makalapit

          A2 
Iisang dangkal na lang

      B2      C#2 
Hindi pa makadikit

 A2 
Ako'y naninigas

   B2       C#2            A2 
Mukang makakaalpas ka na naman

 C#2         E 
Ba-bye na lang


-------
Verse 2|
-------

A2-B2- C#2 
Pangako ko sa susunod
Na ating pagkikita
Di na mahihiya agad, magsasabi na
Ngunit kapag ika'y nasa tabi ko na
Ako'y dinadaga, biglang namumutla


-------
Chorus | Walter Michael De la Cruz Rockz
-------

   A2          
Iisang dangkal na lang

      B2       C#2 
Hindi pa makalapit

          A2 
Iisang dangkal na lang

      B2      C#2 
Hindi pa makadikit

 A2 
Ako'y naninigas

   B2       C#2            A2 
Mukang makakaalpas ka na naman

 C#2          E 
Ba-bye na lang



-------
Bridge | 
-------
 C#2               E 
Paporma-porma pa

    B2 
Pambobola'y memoryado

 C#2                 E 
Di 'yon kagagawan dati

     B2       A2-B2- C#2 
Nakahanda na ako




-------
Chorus | Walter Michael De la Cruz Rockz
-------

   A2          
Iisang dangkal na lang

      B2       C#2 
Hindi pa makalapit

          A2 
Iisang dangkal na lang

      B2      C#2 
Hindi pa makadikit

 A2 
Ako'y naninigas

   B2       C#2            A2 
Mukang makakaalpas ka na naman

 C#2          E 
Ba-bye na lang


-----
coda | 
-----

A2-B2- C#2 
Iisang dangkal na lang
(ba-bye na lang)
(Nakaalpas ka na naman)
Iisang dangkal na lang
(Nakaalpas ka na naman)
(ba-bye na lang)


 Suggest correction What's this?

Comments