Inosente Lang Ang Nagtataka

Artist: Rivermaya (Tagalog)
User: tresmilbert28
Duration: 130 seconds
Delay: 12 seconds
Chord names: Not defined
Abusive:
Comment: -

URL

Updated last time:
Alexander Suslov,
June 17, 2017, 9:59 PM

Text


INTRO E- B- A 3X


 E 
wala, wala, wala, wala, wala, wala, wala, wala, wala*
 wala ka namang nakikita,
 D 
pero ikaw ay tuwang-tuwa.. parang kuliling sa pandinig, parang kuliling sa pandinig,
kuliling sa pandinig, parang kuliling sa pandinig..

 G PAUSE      D-PAUSE
kayong nagtataka, nagtataka, nagtataka.. kayong nagtataka, nagtataka, nagtataka.. kayong
nagtataka, nagtataka..

 E  PAUSE
wala, wala, wala, wala, wala, wala, wala, wala, wala* wala ka namang naririnig,
D-PAUSE
hindi ka naman nakikinig!
D-PAUSE
parang kuliling sa pandinig, parang kuliling sa pandinig, parang kuliling sa pandinig,
kuliling sa pandinig..

REF-
G-PAUSE  D PAUSE
kayong nagtataka, nagtataka, nagtataka.. kayong nagtataka, nagtataka, nagtataka.. kayong
nagtataka, nagtataka.. 2X
CHO-4X
 E         B               A 
HA! inosente lang ang nagtataka,

REPEAT VERSE 1 INTRO REF

  G1    3X
E|------------------------------------------|
B|------------------------------------------|
G|----9999999999----------------------------|
D|----9999999999-999999999-777777777--------|
A|----7777777777-999999999-777777777--------|
D|---------------999999999-777777777--------|

   G2  Lead Part
E|---------------------------------------------------|
B|-----------9~--------------------------------------|
G|------7/9p--9-9-9--8-----------8-------------------|
D|----------------------11-9-9---11-9-77b------------|
A|---------------------------------------------------|
E|---------------------------------------------------|


E|----------------------------------------------------|
B|----------------------------------------------------|
G|-----7/9p-99999-8-------------8---------------------|
D|---------------------11-9-9----11-9-7777b-----------|
A|----------------------------------------------------|
E|----------------------------------------------------|

E|----------------------------------------------------|
B|---------9-9----------------------------------------|
G|-----7/9p-9-9-998-------------8---------------------|
D|---------------------11-9-9----11-9-7777b-----------|
A|----------------------------------------------------|
E|----------------------------------------------------|


B|---------------------------------------------------|
G|--------------5-------5------5-----5---------------|
D|-7-9--------2-5----2--5---2--5--2--5--2------------|
A|-7-9--------2-3----2--3---2--3--2--3--2------------|
D|-7-9--------2------2------2-----2-----2------------|

guitar1                 Wala, wala, wala . . . .--|
B|-----------------------------------------------------|
G|-----------5-------5------5-----5--------------------|
D|---------2-5----2--5---2--5--2--5--------------------|
A|---------2-3----2--3---2--3--2--3--------------------|
D|---------2------2------2-----2-----------------------|

gutar2-E5-E5-E5-E5-E5-E5-E5- E5 
1St Part:
     Wala ka bang nakikita! Pero Ika’y tuwana-tuwa!
E|----------------------|---------------------------------|
B|----------------------|---------------------------------|
G|-----------X----------|------7------X-------------------|
D|------5---x-----------|-----7------x--------------------|
A|-----5---x------------|----5------x---------------------|
D|----5-----------------|---------------------------------|

      Parang kuliling sa pandinig (4X)
E|-------------------------------------------------------|
B|-------------------------------------------------------|
G|---777777777777777777777777777777777-------------------|
D|---777777777777777777777777777777777-------------------|
A|---555555555555555555555555555555555-------------------|
D|-------------------------------------------------------|

  (Pause) Kayong nagtataka, nagtataka, nagtataka! (3X)
E|----------------|             |----------------------|
B|----------------|             |----------------------|
G|----------------|pause         |---------7-----------|
D|---5------------|             |--------7-------------|
A|---5------------|             |-------5--------------|
D|---5------------|             |----------------------|

Do Intro:
 G1    3X
E|------------------------------------------|
B|------------------------------------------|
G|----9999999999----------------------------|
D|----9999999999-999999999-777777777--------|
A|----7777777777-999999999-777777777--------|
D|---------------999999999-777777777--------|

   G2  Lead Part

E|---------------------------------------------------|
B|------------9~-------------------------------------|
G|------7/9p9--9---8-----------8---------------------|
D|---------------------11-9-9---11-9-7777b-----------|
A|---------------------------------------------------|
E|---------------------------------------------------|

E|----------------------------------------------------|
B|---------9-9----------------------------------------|
G|-----7/9p-9-9-998-------------8---------------------|
D|---------------------11-9-9----11-9-7777b-----------|
A|----------------------------------------------------|
E|----------------------------------------------------|


E|----------------------------------------------------|
B|----------------------------------------------------|
G|-----7/9p-99999-8-------------8---------------------|
D|---------------------11-9-9----11-9-7777b-----------|
A|----------------------------------------------------|
E|----------------------------------------------------|


B|---------------------------------------------------|
G|--------------5-------5------5-----5---------------|
D|-7-9--------2-5----2--5---2--5--2--5--2------------|
A|-7-9--------2-3----2--3---2--3--2--3--2------------|
D|-7-9--------2------2------2-----2-----2------------|


                        Wala, wala, wala . . . .--|
B|-----------------------------------------------------|
G|-----------5-------5------5-----5--------------------|
D|---------2-5----2--5---2--5--2--5--------------------|
A|---------2-3----2--3---2--3--2--3--------------------|
D|---------2------2------2-----2-----------------------|

gutar2-E5-E5-E5-E5-E5-E5-E5- E5 


1St Part:

2St Part:
      (Pause) Wala ka bang naririnig! Hindi ka naman nakikinig!
E|----------------------|---------------------------------|
B|----------------------|---------------------------------|
G|-----------X----------|------7------X-------------------|
D|------5---x-----------|-----7------x--------------------|
A|-----5---x------------|----5------x---------------------|
D|----5-----------------|---------------------------------|

      Parang kuliling sa pandinig (4X)
E|-------------------------------------------------------|
B|-------------------------------------------------------|
G|---777777777777777777777777777777777-------------------|
D|---777777777777777777777777777777777-------------------|
A|---555555555555555555555555555555555-------------------|
D|-------------------------------------------------------|

  (Pause) Kayong nagtataka, nagtataka, nagtataka! (3X)

E|----------------||-------------------|
B|----------------||-------------------|
G|----------------\|-------7-----------|
D|---5------------||-------7-----------|
A|---5------------||-------5-----------|
D|---5------------||-------------------|


int

E|---------------------------------------------------|
B|------------9~-------------------------------------|
G|------7/9p9--9---8-----------8---------------------|
D|---------------------11-9-9---11-9-7777b-----------|
A|---------------------------------------------------|
E|---------------------------------------------------|


E|----------------------------------------------------|
B|---------9-9----------------------------------------|
G|-----7/9p-9-9-998-------------8---------------------|
D|---------------------11-9-9----11-9-7777b-----------|
A|----------------------------------------------------|
E|----------------------------------------------------|

  G1    3X
E|------------------------------------------|
B|------------------------------------------|
G|----9999999999----------------------------|
D|----9999999999-999999999-777777777--------|
A|----7777777777-999999999-777777777--------|
D|---------------999999999-777777777--------|

   G2  Lead Part

Chorus:

Ha!Inosente lang ang nagtataka (4X)
E|----------------------------------------------------|
B|----------------------------------------------------|
G|----9999999999--------------------------------------|
D|----9999999999-999999999-777777777------------------|
A|----7777777777-999999999-777777777------------------|
D|---------------999999999-777777777------------------|

hoy,hoy,hoy.hoy...
B|---------------------------------------------------|
G|--------------5-------5------5-----5---------------|
D|-7-9--------2-5----2--5---2--5--2--5--2------------|
A|-7-9--------2-3----2--3---2--3--2--3--2------------|
D|-7-9--------2------2------2-----2-----2------------|

B|-----------------------------------------------------|
G|-----------5-------5------5-----5--------------------|
D|---------2-5----2--5---2--5--2--5--------------------|
A|---------2-3----2--3---2--3--2--3--------------------|
D|---------2------2------2-----2-----------------------|

guitar2-E5-E5-E5-E5-E5-E5-E5- E5 


Comments