Everythings Not Lost

Artist: Coldplay (English)
User: tresmilbert28
Duration: 130 seconds
Delay: 12 seconds
Chord names: Not defined
Abusive:
Comment: -

URL

Uploaded:
October 29, 2016, 7:22 AM

Text

 Everythings Not Lost 

CHORDS:  
 -----------------
 E         o221oo 
 G#dim     4x34oo 
 F#7-5     2x233o  
 B7sus2    x24222  
 Emaj7     o211oo 
 E7        o2o1oo 
 A/C#      x4222o 
 A         xo222o 
 E*        o7999x 
 E7*       o7979x 
 E6        o7969x 
 Bm7       7977oo 
 F#m9      2422o4 
 -----------------


[Verse]

 E         G#dim        F#7-5 
   When I counted up my demons,
 E              G#dim         F#7-5
   Saw there was one for every day,
 E              G#dim           F#7-5
   But with the good ones on my shoulder,
 B7sus2                         E  
        I drove the other ones away,


[Chorus]

 E           Emaj7        E7      F#7-5
   So if you ever feel neglected,
 E            Emaj7              E7   A/C#       
   And if you think that 
all is lost,
 E               Emaj7          E7    A/C#  
   Well I'll be counting up 
my demons yeah,
 A             B7sus2       E 
   Hoping everything's not lost,


             E 
e|--12-12-12-12-12-12-4-5--|
B|--------------------------|
G|--------------------------|
D|--------------------------| x1
A|--------------------------|
E|--------------------------|


[Refrain]

     E*                        E7*         E6 
e|--12-12-12-12-12-12-4-5--|--12-12-12-12-12-12-4-5--|
B|--------------------------|--------------------------|
G|--------------------------|--------------------------|
D|--------------------------|--------------------------| x4
A|--------------------------|--------------------------|
E|--------------------------|--------------------------|


[Verse]

 Same as above

 When you thought that it was over,
 You could feel it all around,
 When everybody's out to get you,
 Don't you let it drag you down,


[Chorus]

 Same as above

 So if you ever feel neglected,
 And if you think that all is lost,
 Well I'll be counting up my demons yeah,
 Hoping everything's not lost,


[Refrain]

     E*                        E7*         E6 
e|--12-12-12-12-12-12-4-5--|--12-12-12-12-12-12-4-5--|
B|--------------------------|--------------------------|
G|--------------------------|--------------------------|
D|--------------------------|--------------------------| x1
A|--------------------------|--------------------------|
E|--------------------------|--------------------------|

     E*                        E7*         E6 
e|--12-12-12-12-12-12-4-5--|--12-12-12-12-12-12-16-17--|
B|--------------------------|---------------------------|
G|--------------------------|---------------------------|
D|--------------------------|---------------------------| x1
A|--------------------------|---------------------------|
E|--------------------------|---------------------------|

     E*                        E7*         E6 
e|--12-12-12-12-12-12-4-5--|--12-12-12-12-12-12-4-5--|
B|--------------------------|--------------------------|
G|--------------------------|--------------------------|
D|--------------------------|--------------------------| x2
A|--------------------------|--------------------------|
E|--------------------------|--------------------------|


[Chorus]

Same chords

 If you ever feel neglected,
 And if you think that all is lost,
 Well I'll be counting up my demons yeah,
 Hoping everything's not lost,


[Outro]

             E*                E7* E6     
 Singing out ah, ah, ah, yeah, 
ah, ah, yeah,
 E*           E7*     E6               E*
   Ah ah yeah,   and everything's not lost,
                 E7*   E6  
 So come on yeah,   ah ah, yeah,
 E*              E7*      E6              E*
   Come on yeah,    and everything's not lost,

 On the E the riff enters:

     E*                        E7*         E6 
e|--12-12-12-12-12-12-4-5--|--12-12-12-12-12-12-4-5--|
B|--------------------------|--------------------------|
G|--------------------------|--------------------------|
D|--------------------------|--------------------------| x1 
A|--------------------------|--------------------------|
E|--------------------------|--------------------------|

     E*                        E7*         E6 
e|--12-12-12-12-12-12-4-5--|--12-12-12-12-12-12-16-17--|
B|--------------------------|---------------------------|
G|--------------------------|---------------------------|
D|--------------------------|---------------------------| x1
A|--------------------------|---------------------------|
E|--------------------------|---------------------------|

     E*                        E7*         E6 
e|--12-12-12-12-12-12-4-5--|--12-12-12-12-12-12-4-5--|
B|--------------------------|--------------------------|
G|--------------------------|--------------------------|
D|--------------------------|--------------------------| x1 
A|--------------------------|--------------------------|
E|--------------------------|--------------------------|

     E*                         E7*         E6 
e|--12-12-12-12-12-12-16-17--|--12-12-12-12-12-12-4-5--|
B|---------------------------|--------------------------|
G|---------------------------|--------------------------|
D|---------------------------|--------------------------| x1
A|---------------------------|--------------------------|
E|---------------------------|--------------------------|

            E7*   E6 
 Ah ah yeah,   ah ah yeah,
 E*           E7*     E6               E*
   Ah ah yeah,   and everything's not lost,
              E7*   E6     
 Come on yeah,   ah ah yeah,
 E*               E7*        E6 
   Come on yeah, yeah, yeah, yea - ah,

 2nd lead guitarist comes in
 
    E                   Bm7                F#m9 
e|-------------------|-------------------|--------------------------------------|
B|-------------------|-------------------|--------------------------------------|
G|--4-4-4-4-4-4-4-4--|--6-6-6-6-6-6-6-6--|-/9-9-9-9-9-9-9-9-9-9-9-9-9/11-11-11--|
D|-------------------|-------------------|--------------------------------------|
A|-------------------|-------------------|--------------------------------------|
E|-------------------|-------------------|--------------------------------------|

    E                   Bm7                         F#m9                                             E 
e|-----------------|---------------------------|------------------------------------------------------|
B|-----------------|---------------------------|------------------------------------------------------|
G|9-9-9-9-9-9-9-9--|-/11-11-11-11-11-11-11-11--|-/13-13-13-13-13-13-13-13-13-13-13-13-13/14-14-14-1413|
D|-----------------|---------------------------|------------------------------------------------------|
A|-----------------|---------------------------|------------------------------------------------------|
E|-----------------|---------------------------|------------------------------------------------------|

 E              Bm7            
   Come on yeah,   ah ah yeah,
 F#m9                                     E   
      Come on yeah, and everything's 
not lost,
               Bm7             
 Sing out yeah,   ah ah yeah,
 F#m9                                     E 
      Come on yeah, and everything's not lost,
              Bm7           
 Come on yeah,   ah ah yeah,
 F#m9                                      E       Bm7      F#m9 
      Sing out yeah, and everythings not lost
 

Comments