Next 100 Years

Artist: Bon Jovi (English)
User: tresmilbert28
Duration: 130 seconds
Delay: 12 seconds
Chord names: Not defined
Abusive:
Comment: -

URL

Uploaded:
October 26, 2016, 7:04 PM

Text

The Next 100 Years
Bon Jovi
Crush
Tabbed by: Federico 

Intro Riff:
e---------------------------------------------|
B---------------------------------------------|
G-----------------------------3------0--------|
D-5-5--3-------5--3-p-0--5-5----3--3----3-p-0-|
A-5-5-----5--3-----------5-5------------------|
E-3-3--------------------3-3------------------|

e-------------------------|
B-------------------------|
G-------------------------|
D--5-5--3-h-5--3-p-0--5-5-|
A--5-5----------------5-5-|
E--3-3----------------3-3-|

 G 
Time ain't nothing but time
                       Am 
It's a verse with no rhyme
         C                G 
Man, it all comes down to you
 G                        Bm 
Change ain't nothing but change
                       C 
Just the faces and the names
                                 G 
But you know we're gonna make it through
 Am  Em 
I    believe
 Am        G     D 
When you don't believe in anything

Chorus:
          G 
I-m gonna hold you 'til your hurt is gone
       E7 
Be the shoulder that you're leaning on
 C 
I'll be standing here
        F     C    G 
For the next 100 years
If it all should end tonight
 E7 
I know it was worth the fight
        C 
We'll be standing here
       F      C  G 
For the next 100 years


I, when I think that I'm, losing my mind, It all comes back to you
You, you know that it-s true, after all we-ve been through,
There-s nothing that I wouldn-t do
Stay, by me
I would gladly give, up everything


Chorus:
I'm gonna hold you 'til your hurt is gone
Be the shoulder that you're leaning on
I'll be standing here
For the next 100 years
If it all should end tonight
I know it was worth the fight
We'll be standing here
For the next 100 years

I'm gonna hold you 'til your hurt is gone
Be the shoulder that you're leaning on
I'll be standing here
For the next 100 years
If it all should end tonight
I'll know it was worth the fight
And we'll be standing here
For the next 100 years

Outro: Nah, nah, nah ,nah......

Comments