Отчим

Artist: Фактор 2 (Russian)
User: Я Я
Duration: 130 seconds
Delay: 10 seconds
Chord names: Not defined
Abusive:
Comment:
Рекомендуемый рисунок:
---------3-------
-----2-------2---
---1---1---1---1-
-----------------
-+---------------
-----------------

Вступление:
E||-----------7--|4/5-------------|---------------|-----------|
H||-----5-7-8---|----------8p7h|-8-------8p7-|------7----|
G||---4----------|----------------|---------------|-8---------|
e|-------12-14--15-|---14-15---17--|-19-------14p12-|-11--------||
h|----12-------------|-------------------|--------------------|------------||
g|--------------------|-------------------|--------------------|------------||

Проигрыш:
E||-----------7--|4/5-------------|------------------|------------|
H||-----5-7-8---|----------8p7h|-8--7--5-7--5---|------------|
G||---4----------|----------------|-------------------|-8----4----|

URL

Updated last time:
Anonymous,
April 30, 2014, 5:45 PM

Text

 Em        D          Am           B7
Отчим неумело в стену  забивает гвоздь
 Em             D          Am            B7
Лет на пять меня он старше  пробирает злость
 C            G        B7            Em
Не могла найти другого  с опытом постарше
 C         G       B7            Em
Состоятельный нам нужен мам  а не кок на барже

  Em               Am               D                G
Ну зачем ну зачем познакомилась ты  с этим разгильдяем
 Am               Em               B7              Em
Ну зачем он намного моложе чем ты   все об этом знают
 
 Em        D          Am           B7
По любви не по расчёту ветер в голове
 Em        D          Am           B7
Клином свет на нём сошёлся в прошлом декабре
 C            G        B7            Em
И пройти весь путь сначала с ним не побоялась
 C            G        B7            Em
Не смотря на то что много раз в жизни ошибалась


Comments

April 27, 2014, 8:04 PM
E||-----------7--|4/5-------------|---------------|-----------|
H||-----5-7-8---|----------8p7h|-8-------8p7-|------7----|
G||---4----------|----------------|---------------|-8---------|
e|-------12-14--15-|---14-15---17--|-19-------14p12-|-11--------||
h|----12-------------|-------------------|--------------------|------------||
g|--------------------|-------------------|--------------------|------------||

Проигрыш:
E||-----------7--|4/5-------------|------------------|------------|
H||-----5-7-8---|----------8p7h|-8--7--5-7--5---|------------|
G||---4----------|----------------|-------------------|-8----4----|