We are broken (bass tabs)

Artist: Paramore (English)
User: tresmilbert28
Duration: 130 seconds
Delay: 12 seconds
Chord names: Not defined
Abusive:
Comment: -

URL

Uploaded:
October 19, 2016, 5:54 AM

Text


We Are Borken Bass Tab
by Paramore



Song: We Are Broken
Artist: Paramore
Album: Riot!

Drop D tuning

Intro/Verse x4 
There's no actual bass here, but I like playing with the bass notes of the piano
G|--------------------|
D|--------------------|
A|2~-1~---------------|
D|------1~-4~---------|
 
Pre-Chorus 2x
Second time hold out D# 
G|----------------11~-10~--|
D|--11-9-8~-4~-------------|
A|-------------4~----------|
D|/9-----------------------|
 
Chorus x2
G|--------------------|
D|--------------------|
A|------------4(16x)--|
D|1(8x)-4(8x)---------|

Chorus Ending
G|-------------------|
D|-------------------|
A|-------------------|
D|9~-6~-9~-6~-4~-----|

Verse x4
Listen a few times for the rhythm
G|------------------------------|
D|-----2-4-------4--------------|
A|2~-2-----1~-1~---1------------|
D|-------------------1~~-4~-4~--|

Pre-Chorus 2x
Second time hold out D# 
G|----------------11~-10~--|
D|--11-9-8~-4~-------------|
A|-------------4~----------|
D|/9-----------------------|

Chorus x2
G|--------------------|
D|--------------------|
A|------------4(16x)--|
D|1(8x)-4(8x)---------|

Chorus Ending
G|-------------------|
D|-------------------|
A|-------------------|
D|9~-6~-9~-6~-4~-----|

Bridge x2
G|--------------------|
D|--------------------|
A|--------------------|
D|7(8x)-2(8x)-9(16x)--|

Build-Up
G|--------------------|
D|--------------------|
A|--------------------|
D|11~-----------------|

Chorus x2
G|--------------------|
D|--------------------|
A|------------4(16x)--|
D|1(8x)-4(8x)---------|

Chorus Ending
G|-------------------|
D|-------------------|
A|-------------------|
D|9~-6~-9~-6~-4~-----|

lyrics:
"We Are Broken"

I am outside
And I've been waiting for the sun
With my wide eyes
I've seen worlds that don't belong
My mouth is dry with words I cannot verbalize
Tell me why we live like this

Keep me safe inside
Your arms like towers
Tower over me

Yeah
'Cause we are broken
What must we do to restore
Our innocence
And oh, the promise we adored
Give us life again
'Cause we just wanna be whole

Lock the doors
Cause I'd like to capture this voice
That came to me tonight
So everyone will have a choice
And under red lights
I'll show myself it wasn't forged
We're at war
We live like this

Keep me safe inside
Your arms like towers
Tower over me

'Cause we are broken
What must we do to restore
Our innocence
And oh, the promise we adored
Give us life again
'Cause we just wanna be whole

Tower over me
Tower over me

And I'll take the truth at any cost

'Cause we are broken
What must we do to restore
Our innocence
And oh, the promise we adored
Give us life again
'Cause we just wanna be whole 

Comments