Aint it fun

Artist: Paramore (English)
User: tresmilbert28
Duration: 130 seconds
Delay: 12 seconds
Chord names: Not defined
Abusive:
Comment: -

URL

Uploaded:
October 18, 2016, 9:34 AM

Text


-------------------------------------------------------------------------------
                             Ain't it Fun Acoustic - Paramore
-------------------------------------------------------------------------------
Tabbed by:Craig Whitney
E-mail:whitney.craig@comcast.net
Tuning: Standard - Capo 3
[Intro]
E|--------------------------------------------|
A|----3----3-----3------3-----3----3----------|
D|----2----0-----0------0h2---0----0----------|   (Repeat)
G|----0----0-----0h2----0-----0----0h2--------|
B|----1----1-----1------1-----1----1----------|
e|--------------------------------------------|

[Bar First Fret]
E|----1----1-----1------1-----1----1----------|
A|----3----3-----3------3-----3----3----------|
D|----2----0-----0------0h2---0----0----------|
G|----0----0-----0h2----0-----0----0h2--------|
B|----1----1-----1------1-----1----1----------|
e|----1----1-----1------1-----1----1----------|

[Verse]
        F    Am               C 
I don't mind letting you down easy
             F   
Just give it time
 Am               C               
If it don't hurt now then just wait
            F 
Just wait a while
       Am                      
You're not the big fish in the pond no more
                   F           Am     F 
You're what they're feeding on

[Bridge]
 F 
So what are you gonna do
 Am 
When the world don't orbit around you

[Chorus]
         F    Am     G      F          Am     G 
Ain't it fun, living in the real world?
         F    Am     G      F          Am     G 
Ain't it good, being on your own?
 
[Verse 2]
             F     Am               C 
Where you're from, you might be the one
              F 
Who's running things
                Am             C                     F      Am    F 
Where you could ring anybody's bell to get what you want
 F 
You see, it's easy to ignore a trouble
 Am 
When you're living in a bubble

[Bridge]
 F 
So what are you gonna do
 Am 
When the world don't orbit around you
 F 
So what are you gonna do
 Am 
When nobody wants to fool with you

[Chorus]
         F    Am     G      F           Am     G 
Ain't it fun, living in the real world?
         F    Am     G      F           Am     G 
Ain't it good, being on your own?
         F                   
Ain't it good to be on your own
         Am                     C 
Ain't it fun you can't count on no one
         F      
Ain't if good to be on your own
         Am                    C 
Aint it fun you can't count on no one
         F    Am     G      F         Am     G 
Ain't it fun, living in the real world

[Ad Lib]
(Intro Tab for this too)
           Don't go     crying
E|--------------------------------------------|
A|----3----3-----3------3-----3----3----------|
D|----2----0-----0------0h2---0----0----------|   (Repeat)
G|----0----0-----0h2----0-----0----0h2--------|
B|----1----1-----1------1-----1----1----------|
e|--------------------------------------------|

[Bar First Fret]
           To    your   mama
E|----1----1-----1------1-----1----1----------|
A|----3----3-----3------3-----3----3----------|
D|----2----0-----0------0h2---0----0----------|
G|----0----0-----0h2----0-----0----0h2--------|
B|----1----1-----1------1-----1----1----------|
e|----1----1-----1------1-----1----1----------|
           'Cause  your    on your own
E|--------------------------------------------|
A|----3----3-----3------3-----3----3----------|
D|----2----0-----0------0h2---0----0----------|   (Repeat)
G|----0----0-----0h2----0-----0----0h2--------|
B|----1----1-----1------1-----1----1----------|
e|--------------------------------------------|

[Bar First Fret]
           In the       real  world
E|----1----1-----1------1-----1----1----------|
A|----3----3-----3------3-----3----3----------|
D|----2----0-----0------0h2---0----0----------|
G|----0----0-----0h2----0-----0----0h2--------|
B|----1----1-----1------1-----1----1----------|
e|----1----1--

Comments