HOLE LIVE BASS TAB VER.1

Artist: Greyhoundz (Tagalog)
User: tresmilbert28
Duration: 130 seconds
Delay: 12 seconds
Chord names: Not defined
Abusive:
Comment: -

URL

Uploaded:
October 3, 2016, 8:14 PM

Text

Hole Bass TaB
by Greyhoundz
163 views 1 this week
no commentswrite comment
12345
please rate
add to favoriteslaunch autoscroll
font size
guitar tuner
 Tab Pro tools
 play this tab
 loop segment
 change instrument
 show fretboard
 metronome
Click to play
Hole
Help us to improve Ultimate-Guitar.com Take our survey! ×
Author
Niko666 50
GreYHoUnDZ---HoLe 
TaB by: +==[];;;nIkO;;;; 

Mas Ok toh kaYsa s Una koNg GinaWa.....
peRo tingNan nio din kuNg ano Ang mas TaMa....
TpuS iraTe nio....
e2 100000000000%
SureBoLz...heheheh

s = SLAP
p = pop/pluck 
x = slap ded string
~ = let ring
/ = slide
b = bend

Intro: 
G:---------------------------------|  |-----------------|
D:---------1-----------------------|7x|----1------3-----|2x - e2 lasT note sa huLi
A:---------------------------------|  |-----------------|
D:-0-1-0---------------------------|  |-x-----x---------|     |--0~-|
   s s s   p                            s  p  s   p              


beFoRe the VerSe1:
G:---------------------------------------------------------| 
D:---------------------------------------------------------| 4x 
A:-------------5~------------------------------------------| 
D:---0--3---/5--------777---333----------------------------|

VerSe1;
G:---------------------------------------------------------| 
D:---------------------------------------------------------| 8x - e2 LasT noTe sa HuLi 
A:-3-/5--4--//11h12-----------12\-11-----11\-10------10----| 
D:---------- ----------12--/14--------14--------12---------|    |--0~-|
                                                                  
 
ChOrUZ: 4x
stress......
G:---------------------------------|  |-----------------|
D:---------1-----------------------|7x|----1------3-----| 4x - e2 last note sa huLi
A:---------------------------------|  |-----------------|
D:-0-1-0---------------------------|  |-x-----x---------|      |--0~-|
   s s s   p                            s  p  s   p               



beFoRe the VerSe2:
G:---------------------------------------------------------| 
D:---------------------------------------------------------| 4x 
A:-------------5~------------------------------------------| 
D:---0--3---/5--------777---333----------------------------|


veRse2;
G:---------------------------------------------------------| 
D:---------------------------------------------------------| 8x - e2 LasT noTe sa HuLi 
A:-3-/5--4--//11h12-----------12\-11-----11\-10------10----| 
D:---------- ----------12--/14--------14--------12---------|      |--0~-|
                                                                 
 

ChoRuZ;
G:---------------------------------|  |-----------------|
D:---------1-----------------------|7x|----1------3-----| 4x 
A:---------------------------------|  |-----------------|
D:-0-1-0---------------------------|  |-x-----x---------|      
   s s s   p                            s  p  s   p              
 

soRi mga tsoNg ndi ko pa Alam un basS liNe s BrIdgE.....
PerO cguRaDo Ako n pareHo Lng Ng gitara Un Bass liNe DuN.....
LagYan nyo n Lng muna ng skaLa!!!
hehehehe......



ChoRuZ;
G:---------------------------------|  |-----------------|
D:---------1-----------------------|7x|----1------3-----| 8x 
A:---------------------------------|  |-----------------|
D:-0-1-0---------------------------|  |-x-----x---------|      
   s s s   p                            s  p  s   p       


tPuz e2 un huLi....
G:---------------------------------------------------------| 
D:---------------------------------------------------------| 4x 
A:-------------5~------------------------------------------| 
D:---0--3---/5--------777---333----------------------------|


mga Tsong iraTe nio toh 2 d higheSt leVeL.....
nagPapaSaLaMaT ako kaY BoN n kLasMyt ko s FEU n 2muLong sakin s PaggaWa niTo...
PoTA aNg LuPeT....
TingNan niO n lng un iSa koNg TaB ng GreYhoundZ
un PupPeTz and cLowN....


BanDa ko ToH.....

:::OsTraCiZe:::
ostracize@cryptide.com
add nio kme sa FriendsTer!!!!
baHisTa    : niKO  
giTaRisTa  : deO 
ritiMisTa  : E-knoD
tAmBoLisTa : AllAn 
BoKaLisTa  : AlViN

KuNg My maLi TeXT Me....
09273731826
 Suggest correction What's this?

Comments