Doble Kara Tab ver 3

Artist: Greyhoundz (Tagalog)
User: tresmilbert28
Duration: 130 seconds
Delay: 16 seconds
Chord names: Not defined
Abusive:
Comment:
asna

URL

Updated last time:
tresmilbert28,
October 3, 2016, 1:51 PM

Text

Song:Doble Kara
Album:Apoy
Artist:Grey Houndz
Date Tabbed:oct 3 2016
Guitar Tabber:Mac bryan inocencio
              

Gtr.Legends:
/\ - SLIDE
h  - HAMMER-ON
p  - PULL-OFF
b  - BEND
x  - SCRATCHING( DEAD STRING)
.  - PALM MUTING

Gtr.Tuning:Drop D 

Intro prt.1:
e|--------------------------------------------      ------------------------------------------|
B|-------------------------------------------- 3x   ------------------------------------------|
G|----------------------------------------4b-- Then ------------------------------------------|
D|--------------------------------------------      ------------------------------------------|
A|-----9-9-10-5-4-4h5p4------9-9-10-4h5-2-----      -----9-9-10-5-4-4h5p4------9-9-10-4h5-2---|
D|-4/9-------------------4/9------------------      -4/9-------------------4/9----------------|

Intro prt.2:Repeat 2x
e|-----------------------      ---------|
B|----------------------- 4x   ---------|
G|----------------------- Then ---------|
D|-----------------------      -4-5-7---|
A|-0-0-1h2-1--0-0-1h2-1--      -4-5-7---|
D|-0-0-1h2-1--0-0-1h2-1--      -4-5-7---|
   . .        . .

Before Verse:
e|-------------------------------------------------|
B|-------------------------------------------------|
G|-------------------------------------------------|
D|-2-2-2--2-22--2-2-2--2-22---3-3-3--3-33--3-3-3---|
A|-2-2-2--2-22--2-2-2--2-22---3-3-3--3-33--3-3-3---|
D|-2-2-2--2-22--2-2-2--2-22---3-3-3--3-33--3-3-3---|
   x x x  x xx  x x x  x xx   x x x  x xx  x x x  

Verse 1:
e|-------------------------------------------------------|
B|-------------------------------------------------------|
G|-------------------------------------------------------| 2x
D|-2-2-2--2-22--2-2-2--2-22---3-3-3--3-33--3-3-3--3-33---|
A|-2-2-2--2-22--2-2-2--2-22---3-3-3--3-33--3-3-3--3-33---|
D|-2-2-2--2-22--2-2-2--2-22---3-3-3--3-33--3-3-3--3-33---|
   x x x  x xx  x x x  x xx   x x x  x xx  x x x  x xx

Before Pre-Chorus:
e|----------------------------------------------------------------|
B|----------------------------------------------------------------|
G|----------------------------------------------------------------|
D|-2-2-2-----------2-2-2-----------3-3-3-----------3-3-3----2-4---|
A|-2-2-2-77-99-88--2-2-2-77-99-88--3-3-3-77-99-88--3-3-3--3-------|
D|-2-2-2-----------2-2-2-----------3-3-3-----------3-3-3----------|
   . . .           . . .           . . .

Pre-Chorus:
e|---------------------------------|
B|---------------------------------|
G|---------------------------------|
D|-9-5-6--9-5-7--9-5-6--9-5-7--5---|
A|-9-5-4--9-5-5--9-5-4--9-5-5--5---|
D|-9-5----9-5----9-5----9-5----5---|
                               .

Chorus 1:
e|--------------------  ---------------|
B|--------------------  ---------------|
G|--------------------  ---------------|
D|-2-4-5-0-2-0-1h2p1--  -2-4-5-0-2h1---|
A|-2-4-5-0-2-0-1h2p1--  -2-4-5-0-2h1---|
D|-2-4-5-0-2-0-1h2p1--  -2-4-5-0-2h1---|

Before Verse 2:
e|------------      ---------|
B|------------ 7x   ---------|
G|------------ Then ---------|
D|------------      -4-5-7---|
A|-0-0-1h2p1--      -4-5-7---|
D|-0-0-1h2p1--      -4-5-7---|

Verse 2:Play Verse 1 

Repeat Pre-Chorus and Chorus 1:

Bridge prt.1:
e|-----------             ---------|
B|----------- Repeat      ---------| 2x
G|----------- Many Times  ---------| Then Do a Long Pick Slide....
D|----------- Then        -4-5-7---|
A|-0-0-0-3b--             -4-5-7---|
D|-0-0-------             -4-5-7---|
   . . 

Bridge prt.2:
e|----------------------------------|
B|----------------------------------|
G|----------------------------------|  Notes:Bridge prt.2!!hmmmm...  
D|-9-9-7-9--7h9-9-7-9--9h10p9--10---|        this is the hardest prt for
A|-9-9-7-9--7h9-9-7-9--9h10p9--10---|        me..So listen well in this
D|-9-9-7-9--7h9-9-7-9--9h10p9--10---|        part to get the timing. 
   . . . .      .                            Strumming is not exact a

Comments