Natutulog kong mundo bass

Artist: Wolfgang (Tagalog)
User: ehmaeh12
Duration: 130 seconds
Delay: 12 seconds
Chord names: Not defined
Abusive:
Comment: -

URL

Updated last time:
Alexander Suslov,
June 17, 2017, 11:12 PM

Text

     Natutulog Kong Mundo - Wolfgang
-------------------------------------------------------------------------------
Tabbed by:win010498
Email:win010498@yahoo.com.ph

Tuning:Standard
G|---------------------------------------------------------|
D|---------------------------------------------------------|
A|---6------------6--------------6---7-7-------------------|
E|--------------------------------------------6/8-6/8|-----|

G|---------------------------|
D|---------------------------|
A|---6---7-7-------------|1--|1x
E|---------------6/8-6/8|----|

G|------------------------------------------------------------------------------|
D|-----7-4-6-4-------7-4-6-4-----7-4-6-4----------------------------------------|
A|--6-------------6-6-------------6------------4-6-6-6-4-6-6-4-66---------------|2x
E|------------------------------------------------------------------------------|

G|---------8----------------6-------------------|
D|----6/8---6/8-----4/6----4/6------------------|
A|-6----------------4---------------------------|
E|------------------------------------7------6--|

G|---------8----------------6----------------------------------------------------|
D|----6/8----6/8----4/6----4/6----------9---------------8------------------------|
A|-6----------------4------------------7/9----7/9----6/8-----6/8-----------------|2x
E|------------------------------------7---------------6--------------------------|

G|---------8----------------6------------------------------------------|
D|----6/8---6/8-----4/6----4/6-----------------------------------------|
A|-6----------------4--------------------------------------------------|
E|--------------------------------------77777777766666666--------------|

G|------------------------------------------------------------------------------|
D|-----7-4-6-4-------7-4-6-4-----7-4-6-4----------------------------------------|
A|--6-------------6-6-------------6------------4-6-6-6-4-6-6-4-66---------------|2x
E|------------------------------------------------------------------------------|

G|-------------------------------------6666666--------------------|
D|--99999999--66666666  8-----------------------4444444466446464--|
A|----------------------------------------------------------------|
E|----------------------------------------------------------------|

G|----------------------------------------------------------------------------|
D|--99999999--66666666  ----------------------44444467------------------------|
A|-----------------------------------44444467---------------------------------|
E|----------------------------------------------------------------------------|

G|------------------------------------------------------------------------------|
D|-----7-4-6-4-------7-4-6-4-----7-4-6-4----------------------------------------|
A|--6-------------6-6-------------6------------4-6-6-6-4-6-6-4-66---------------|2x
E|------------------------------------------------------------------------------|

G|--------------------------------------|
D|-----------4--------------------------|
A|6---------------------6---------------|
E|----------------------------------6---|

G|---------8----------------6-------------------|
D|----6/8---6/8-----4/6----4/6------------------|
A|-6----------------4---------------------------|
E|------------------------------------7------6--|

G|---------8----------------6----------------------------------------------------|
D|----6/8----6/8----4/6----4/6----------9---------------8------------------------|
A|-6----------------4------------------7/9----7/9----6/8-----6/8-----------------|
E|------------------------------------7---------------6--------------------------|

G|----------------8---------------------6----------------------------------------|
D|-------------6/8--8-------------46--6--------------9-----------------8---------|2X
A|6666666----------4444444------------------79-9------------68--8----------------|
E|-------------------------------------------777777------6666666-----------------|

G|------------------------------------------------------------------------------|
D|-----7-4-6-4-------7-4-6-4-----7-4-6-4----------------------------------------|
A|--6-------------6-6-------------6------------4-6-6-6-4-6-6-4-66---------------|2x
E|------------------------------------------------------------------------------|
Suggest correction What's this?

Comments