Второе стеклянное чудо

Artist: Аквариум (Russian)
User: f.wassily
Duration: 130 seconds
Delay: 24 seconds
Chord names: Default
Abusive:
Comment: -

URL

Updated last time:
KOT72,
November 14, 2016 8:41 AM

Text

Вступление:
E----12-5-5-7       ----12-7-5
H----xx-x-x-x       ----xx-x-x
G----12-5-5-7       ----12-7-5
D----xx-x-x-x- - 2p. ---xx-x-x Em (II) D  C  D  Am  B7  Em 
A------------       ----------
E-0----------       -0--------
 
     Em                 Bm 
Когда ты был мал, ты знал всё, что знал,
      C        D (III)         Em 
И собаки не брали твой след.
     Em                  Bm 
Теперь ты открыт, ты отбросил свой щит,
        C             D (III)          Em 
Ты не помнишь, кто прав и кто слеп.
       C               B7 
Ты повесил мишени на грудь,
        C       Bm      Em 
Стоит лишь тетиву натянуть;
       C     C/B 
Ты ходячая цель,
        Am   B7         Em 
Ты уверен, что верен твой путь.
 
Проигрыш:
E----12-5-5-7       ----12-7-5
H----xx-x-x-x       ----xx-x-x
G----12-5-5-7       ----12-7-5
D----xx-x-x-x- - 2p. ---xx-x-x Em (II) D  C  D  Am  B7  Em 
A------------       ----------
E-0----------       -0--------
 
Но тем, кто не спит, не нужен твой сад,
В нём ведь нет ни цветов, ни камней.
И даже твой бог никому не помог,
Есть другие, светлей и сильней;
И поэтому ты в пустоте,
Как на старом забытом холсте:
Не в начале, не в центре,
И даже не в самом хвосте.
 
Заключение:
E----12-5-5-7       ----12-7-5
H----xx-x-x-x       ----xx-x-x
G----12-5-5-7       ----12-7-5
D----xx-x-x-x- - 2p. ---xx-x-x Em (II) D  C  D  Am  B7  Em 
A------------       ----------
E-0----------       -0--------

Comments