Pretty woman

Artist: Roy Orbison (English)
User: Роман Полищук
Duration: 130 seconds
Delay: 12 seconds
Chord names: Not defined
Abusive:
Comment: -

URL

Uploaded:
July 14, 2016, 12:14 AM

Text

Roy Orbison - Pretty Woman
By JoJoKenn.


[Intro]
                         
E|-----------------------|             
B|-----------------------|             
G|-----------------------|             
D|-----------0-----------| 2x          
A|---------2-------------|             
E|-0--0--4---------------|             


E|-------------------------|
B|-------------------------|
G|-------------------------|
D|-------------0--4--2--0--| 4x
A|----------2--------------|
E|-0--0--4-----------------|


[Verse]

        A                F#m               
Pretty Woman, walking down the street, 
 A                          F#m 
Pretty Woman, the kind I like to meet
        D                                              
Pretty woman, 
            E     
I don't believe you your not the truth,
               E    
No one could look as good as you

E|-------------------------|
B|-------------------------|
G|-------------------------|
D|-------------0--4--2--0--| 4x
A|----------2--------------|
E|-0--0--4-----------------|


[Verse]

        A                  F#m         
Pretty woman, won't you pardon me, 
        A                   F#m 
Pretty woman, I couldn't help but see,
        D       
Pretty woman, 
            E   
you look lovely as can be, 
            E  
are you lonely just like me?  
       
E|-------------------------|
B|-------------------------|
G|-------------------------|
D|-------------0--4--2--0--| 4x
A|----------2--------------|
E|-0--0--4-----------------|


[Bridge]

 Dm              G7              C               Am             
Pretty woman, stop a while, Pretty woman, talk a while, 
 Dm              G7                  C   Am 
Pretty woman, give your smile to me.
 Dm              G7                C              Am 
Pretty woman, yeah,yeah,yeah, Pretty woman look my way,
 Dm              G7                     C    A     
Pretty woman, say you'll stay with me-eee, 

        F#m       D                  E  
Coz' I need you, I'll treat you right
 A               F#m    D          E 
 Come with me baby, be mine tonight. 

E|-------------------------|
B|-------------------------|
G|-------------------------|
D|-------------0--4--2--0--| 4x
A|----------2--------------|
E|-0--0--4-----------------|


[Verse]

        A              F#m                  A              F#m           
Pretty woman, don't walk on by, Pretty woman, don't make me cry, Pretty 
        A              F#m          
Pretty woman, don't make me cry
 D   
Pretty woman,
       E 
Don't walk away, hey, okay, if that's the way it must be okay.

I guess I go on home, it's late, there'll be tommorrow night but wait 

(pause)

What do I see? 

E|-----------------------|             
B|-----------------------|             
G|-----------------------|             
D|-----------0-----------| 2x          
A|---------2-------------|             
E|-0--0--4---------------| 

E|-------------------------|
B|-------------------------|
G|-------------------------|
D|-------------0--4--2--0--| 10x
A|----------2--------------|
E|-0--0--4-----------------|

Is she walking back to me? Yeah, shes walking back to me. Oh, Oh Pretty 

 A   A 
Woman

Comments