Over the rainbow

Artist: Eva Cassidy (English)
User: colon
Duration: 130 seconds
Delay: 12 seconds
Chord names: Not defined
Abusive:
Comment:
This tab will not transpose automatically.

URL

Uploaded:
March 11, 2016, 2:44 PM

Text

Eva Cassidy - Over The Rainbow   [capo 1st fret]

[intro]

   G                                 Am7             D7sus
----------------------------------------------------3-------3---------
--0---3---0---3---0---3---0---3-----1---3---1---3---1---1---1---------
--0---0---0---0---0---0---0---0-----0---0---0---0-----2-------2-------
----0---0---0---0---0---0---0---------2---2---2---2-------0-----------
---------------------------------0------------------------------0-----
----------------------------------------------------------------------

[verse]
   G               Em              Bm              G7
----------3---------------0---------------2---------------3-----------
--0-----0-----0---------0-----0---------3-----3---------------6-------
------0-------0-------0-------0---4---4-----4---4-------4-------4-----
----0-------0-------2-------2---2---4-----------------3-----3---------
----------------------------------2-----------------5-----------------
--3-------------2-0-------------------------------3-------------------
  Some...         where...

   C               Cm        G               G7
--3-------0---------------3---------3-------1-------------------------
--------1-----1---------4---0-----0-----0-----------1---3-------------
------0-------0---5---5---------0-------0-------0-----0---0-----------
----2-------2---2---5---------0-------0---0---0---0-------------------
--3---------------3---------------------------------0---2-------------
----------------------------3---------------3-------------------------
                    ...up high...

   C               Cm          G               Em
--1-------0---------------3---------------------------0---------------
--------1---------------4---4-0-------------0-------0-----0-----------
------0-------0---5---5-----5-0---0-------0-------0---------0---------
----2-------2---2---5-----------0---0---0-------2-------2-------------
--3---------------3---------------------------------------------------
------------------------------3-------2-------0-----------------------


   Am7           D7sus   D/B     G               C       D
--3-------0-2/3-3-----------------------3-----------------------------
--1-------1---------1---------0-------0-----0---1-------3-------------
--------0---------2---2-----2-------0-------0---0---0---2---2---------
------2---------0---------0-------0-------0---0---2---2---0---0-------
----0-------------------------------------------3---------------------
------------------------2-------3-----------------------2-------------


   G               Em              Bm              G7
----------3---------------0---------------2---------------3-----------
--0-----0---------------0-----0---3-----3-----3---------------6-------
------0---------------0-------0-------4-----4---4-------4-------4-----
----0-------0-------2-------2---2---4-----------------3-----3---------
----------------------------------2-----------------5-----------------
--3-----------3-2-0-------------------------------3-------------------
  Somewhere...

   C               Cm              G               G7
----------0-------3---5-------3-----------3-------1-------------------
--------1-----1---4---4---4---4---0-----0-----0-----------1---3-------
------0-------0-----------------------0-------0-------0-----0---0-----
----2-------2---2---5---5---5---5---0-------0---0---0---0-------------
--3---------------3---------------------------------------0---2-------
----------------------------------3---------------3-------------------
                               ...blue...

   C               Cm          G               Em
--1-------0---------------3---------------------------0---------------
--------1-----1---4-----4---4-0-----0-------0-------0-----0-----------
------0-------0-------5-----5-0---0-------0-------0-------0-----------
----2-------2---2---5-----------0-------0-------2-------2---2---------
--3---------------3---------------------------------------------------
------------------------------3-------2-------0-----------------------

   Am7           D7sus   D/B     G               C       D
--3-------0-2/3-3-----------------------3-----------------------------
--1-----1-------1---1---------0-------0-----0---1-------3-------------
------0-----------2---2-----2-------0-------0---0---0---2---2---------
----2-----------0---------0-------0-------0---0---2---2---0---0-------
--0---------------------------------------------3---------------------
------------------------2-------3-----------------------2-------------

   G                               Am7             ?
----------------------------------------------------------------------
--0---3---0---3---0---3---0---3---1---3---1---3---1---3---1---3-------
--0---0---0---0---0---0---0---0---0---0---0---0---0---0---0---0-------
----0---0---0---0---0---0---0---0---2---2---2---2---2---2---2---2-----
----------------------------------0-----------------------------------
--3---------------3-------------------------------2-------------------
  Someday...                           ...clouds...

--3-------3---------------0-----------0---3---5---7-------5-----------
--0-----0-------0-------0-----0---------------------------------------
------0-------0-------0-----0-------------------------7-------5-------
----0-------0-------2-----------2---2---2---2---2---7---7---5---5-----
----------------------------------0-----------------------------------
------------------0---------------------------------------------------

   G                               F#7
----------------------------------------------------------------------
----------0---------------0-------------------------------------------
------0-------0-------0-------0-----------3---------------3-----------
----0---0---0---0---0---0---0---0-----2-------2-------2-------2-------
------------------------------------4---4---4---4---4---4---4---4-----
--3---------------3---------------2---------------2-------------------
  where...

   Bm                             Am7             D7
-----------------------------------------0-------------0-0h2----------
---------3-------------3-------3-------1-----1-------1----------------
-----4-------4-------4-------4-------0-----0-------2------------------
---4---4---4---4---4-------4-------2-----------2-0--------------------
-2---------------1-------1-------0------------------------------------
----------------------------------------------------------------------
                             find...             me...

[bridge]

---------------------h5-3-2-------2-----------5---3---1---0-----------
--8---8---7---5---5-------------3-------------------------------------
--7-7---7---7-4-4---4---------4-------------------------------0-------
----------------------------4-------4-------0---0---0---0---2---2-----
--------------------------2-----------0-2-----------------3-----------
------------------------------------------3---------------------------


--0---2---3---5---3h5-5/7-------3----7\\---3---1---3---0--------------
--1---1---1---1---1----------------------0-------------1--------------
----0---0---0---------------0-----0----------0---0---0-----0----------
--------------------------0---0--------------------------2---2--------
-------------------------------------------------------3--------------
----------------------------------------------------------------------

-0---2---3---5---3-----------0---2---3---2---0---2/3-3----------------
-1---1---1---1---1---0---------0---0---0---0---0-----1----------------
---0---0---0-------------0-------------------------------0------------
-----------------------0---0---------------------------2---2----------
-----------------------------------------------------0----------------
---------------------3-------2-------0--------------------------------


--1-2/3-3-------/5---------------3------------------------------------
--0-----1---1---/5-/12---0---3-------3---0-------3--------------------
----------2---2------------0---0---0---0-1---1---2---2----------------
--------0----------------------------------2---2---0---0--------------
-----------------------------------------3----------------------------
-------------------------3-----------------------2--------------------
                                   [end bridge]

   G                               Am7             ?
----------------------------------------------------------------------
--0---3---0---3---0---3---0---3---1---3---1---3---1---3---1---3-------
--0---0---0---0---0---0---0---0---0---0---0---0---0---0---0---0-------
----0---0---0---0---0---0---0---0---2---2---2---2---2---2---2---2-----
----------------------------------0-----------------------------------
--3---------------3-------------------------------2-------------------
  Someday...                           ...clouds...

--2-----------------------0-----------0---3---5--/7-------5-----------
--0-----0-------0-------0-----0---------------------------------------
------0---0---0-------0-----0-------------------------7-------5-------
----0-------0-------2-----------2---2---2---2---2---7---7---5---5-----
----------------------------------0-----------------------------------
------------------0---------------------------------------------------


   G                               F#7
----------------------------------------------------------------------
----------0---------------0---------------5---------------5-----------
------0-------0-------0-------0---------3-----3---------3-----3-------
----0---0---0---0---0---0---0---0-----2-----2---2-----2-----2---2-----
------------------------------------4---------------4-----------------
--3---------------3---------------2---------------2-------------------
  where...

   Bm                             Am7             D7
-----------------------------------------0-------------0--------------
---------3-------------3-------3-------1-----1-------1----------------
-----4-------4-------4-------4-------0-----0-------2------------------
---4---4---4---4---4-------4-------2-----------2-0--------------------
-2---------------1-------1-------0------------------------------------
----------------------------------------------------------------------
                             find...             meeeee.......

   G               Em              Bm              G7
----------3---------------0---------------2---------------3-----------
--0-----0-----0---------0-----0---------3-----3---------------6-------
------0-------0-------0-------0-------4-------4---------4-------4-----
----0-------0-------2-------2---2---4-------4---4-----3-----3---------
----------------------------------2-----------------5-----------------
--3-------------2-0-------------------------------3-------------------
  Some...         where...

   C               Cm        G               G7
----------0---------------3---------3-------1-------------------------
--------1-----1---------4---0-----0-----0-----------1---3-------------
------0-------0---5---5---------0-------0-------0-----0---0-----------
----2-------2---2---5---------0-------0---0---0---0-------------------
--3---------------3---------------------------------0---2-------------
----------------------------3---------------3-------------------------
                         ...are blue...

   C               Cm          G               Em
--1-------0---------------3---------------------------0---------------
--------1-----1---------4---4-0-------------0-------0-----0-----------
------0-------0---5---5-----5-0---0-------0-------0---------0---------
----2-------2---2---5-----------0---0---0-------2-------2-------------
--3---------------3---------------------------------------------------
------------------------------3-------2-------0-----------------------


   Am7           D7sus
--3-------0-2/3-3-----------------------------------------------------
--1-------1---------1-------------0---3---0---3---0---3---0---3-------
------0-----------2---2-----------0---0---0---0---0---0---0---0-------
----2---2-------0-------------------0---0---0---0---0---0---0---0-----
--0-------------------------------------------------------------------
------------------------2---------3-----------------------------------
                 ...come...                    ..if..


----------------------------------------------------------------------
--0---3---0---3---0---3---0---3---1---3---1---3---1-------------------
--0---0---0---0---0---0---0---0---0---0---0---0---0-------------------
----0---0---0---0---0---0---0---0---2---2---2---2---------------------
----------------------------------0-----------------------------------
--3---------------3---------------------------------------------------
..happy..                    ..rainbow why...       oh...


----------0h2------------------------------------------4--------------
--------1------------3-------3-------3-------3-------------4----------
------2------------5-------5-------5-------5---------5---5---5--------
----0------------5-------5-------5-------5---------6------------------
---------------3-------3-------3-------3---------6--------------------
--2--------------------------------------------4----------------------
  why...       i...


----------4-----4------3----------------------------------------------
--------------4-------3--3--------------------------------------------
--------5---5--------4-----4------------------------------------------
------6-------------5--------5----------------------------------------
----6--------------5--------------------------------------------------
--4---------------3------------3--------------------------------------
           (^rake)                    [end]

Comments