Мой рок-н-ролл

Artist: Би-2 (Russian)
User: Alex M
Duration: 130 seconds
Delay: 12 seconds
Chord names: Default
Abusive:
Comment: -

URL

Updated last time:
Андрей Мануев,
June 29, 2017, 2:53 PM

Text

  | F G | Am |

    F           G          Am
 И то что было набело, откроется потом
            F                 G               Am
 Мой рок-н-ролл - это не цель и даже не средство
     F        G      Am
 Не новое, а заново, один и об одном
               F             G           Am
 Дорога - мой дом, и для любви - это не место

      F                   G
 Прольются все слова как дождь,
       Am
    и там где ты меня не ждешь
     F              G              Am
 Ночные ветры принесут тебе прохладу
     F           G
 На наших лицах без ответа,
        Am
  лишь только отблески рассвета
    F       G               Am
 Того, где ты меня не ждешь
 
    F              G         Am
 А дальше - это главное, похожий на тебя
             F          G         Am
 В долгом пути, я заплету волосы лентой
    F            G           Am
 И не способный на покой я знак подам тебе рукой,
     F            G               Am
 Прощаясь с тобой  как будто с легендой

      F                   G
 Прольются все слова как дождь,
       Am
    и там где ты меня не ждешь
     F              G              Am
 Ночные ветры принесут тебе прохладу
     F           G
 На наших лицах без ответа,
        Am
  лишь только отблески рассвета
    F       G               Am
 Того, где ты меня не ждешь

    F           G          Am
 И то что было набело, откроется потом
            F                 G               Am
 Мой рок-н-ролл - это не цель и даже не средство
     F        G      Am
 Не новое, а заново, один и об одном
               F             G           Am
 Дорога - мой дом, и для любви - это не место

Оригинальный перебор:
|----0-----|---0-----|---0----|---0----|
|---5-5-5--|--5-5-5--|--5-5-5-|--5-5-5-|
|--0---0-0-|-0---0-0-|-0---0-0|-0---0-0|
|-3--------|---------|--------|--------|
|----------|---------|--------|--------|
|----------|3--------|5-------|5-------|

Как вариант:
  F                 G
|---------0-------|---------0-------|
|-----0-------0---|-----0-------0---|
|---5---5---5---5-|---5---5---5---5-|
|-----------------|-----------------|
|-----------------|-----------------|
|-1---------------|-3---------------|
  Am
|---------0-------|---------0-------|
|-----0-------0---|-----0-------0---|
|---5---5---5---5-|---5---5---5---5-|
|-----------------|-----------------|
|-----------------|-----------------|
|-5---------------|-5-------3-------|

Если перестроить 6-ю струну из E в D,
то пулучится так:
  F                 G
|---------0-------|---------0-------|
|-----0-------0---|-----0-------0---|
|---5---5---5---5-|---5---5---5---5-|
|-----------------|-----------------|
|-----------------|-----------------|
|-3---------------|-5---------------|

  Am
|---------0-------|---------0-------|
|-----0-------0---|-----0-------0---|
|---5---5---5---5-|---5---5---5---5-|
|-----------------|-----------------|
|-0---------------|-0---------------|
|-----------------|---------5-------|

Comments