Broken

Artist: Seether (English)
User: Nathan Leach
Duration: 130 seconds
Delay: 12 seconds
Chord names: Not defined
Abusive:
Comment: -

URL

Uploaded:
February 10, 2016, 10:46 PM

Text

Seether - Broken

Intro: 
 Em C Em C Em C D      

 Em     C            Em       C
I wanted you to know I love the way you laugh
 Em    C                   D 
I wanna hold you high and steal your pain away
 Em     C               Em      C
I keep your photograph; I know it serves me well
 Em    C                   D
I wanna hold you high and steal your pain

            C  Em           C Em
‘Cause I’m broken when I’m open
             C   Em         C      Em
And I don’t feel like I am strong enough
            C  Em           C   Em
‘Cause I’m broken when I’m lonesome
             C    Em                C    Em     
And I don’t feel right when you’re gone away

  Em C Em C Em C D

 Em        C           Em     C
The worst is over now and we can breathe again
 Em   C                     D
I wanna hold you high, you steal my pain away
 Em         C                   Em       C
There’s so much left to learn, and no one left to fight
 Em   C                    D
I wanna hold you high and steal your pain

            C  Em           C Em
‘Cause I’m broken when I’m open
             C    Em        C     Em
And I don’t feel like I am strong enough
            C  Em           C   Em
‘Cause I’m broken when I’m lonesome
             C    Em                C    Em
And I don’t feel right when you’re gone away

            C  Em           C Em
‘Cause I’m broken when I’m open
             C    Em        C     Em
And I don’t feel like I am strong enough
            C  Em           C   Em
‘Cause I’m broken when I’m lonesome
             C    Em                C   Em     
And I don’t feel right when you’re gone away

Outro: 
 Em C Em C Em C D  end on a Em 

Verse Riff 1   0:00-0:07

eb|-2h3-----3--3------3---------2h3-----3--3------3---------|
Bb|-----0------3----3---3-----3-----0------3----3---3-----3-|
Gb|-------0----0--0---------0---------0----0--0---------0---|
Db|-2---------------------0-----2---------------------0-----|
Ab|------------3---------------------------3----------------|
Eb|---------------------------------------------------------|


Verse Riff 2 0:08-0:11

eb|-0h2-----3p2---0h2-------3p2-----|
Bb|-----3-------3-----3---3-----3---|
Gb|-------2-------------2---------0-|
Db|-0-------------0-----------------|
Ab|---------------------------------|
Eb|---------------------------------|


Verse Riff 3 0:11-0:22

eb|-2h3-----3--3------3---------2h3-----3--3------3---------|
Bb|-----0------3----3---3-----3-----0------3----3---3-----3-|
Gb|-------0----0--0---------0---------0----0--0---------0---|
Db|-2---------------------0-----2---------------------0-----|
Ab|------------3---------------------------3----------------|
Eb|---------------------------------------------------------|

eb|-2h3-----3--3------3------------|
Bb|-----0------3----3---3-----3----|
Gb|-------0----0--0---------0------|
Db|-2---------------------0--------|
Ab|------------3-------------------|
Eb|--------------------------------|


Verse Riff 2 0:23-0:26

eb|-0h2-----3p2---0h2-------3p2-----|
Bb|-----3-------3-----3---3-----3---|
Gb|-------2-------------2---------0-|
Db|-0-------------0-----------------|
Ab|---------------------------------|
Eb|---------------------------------|

Verse Riff 3 0:26-0:38

eb|-2h3-----3--3------3---------2h3-----3--3------3---------|
Bb|-----0------3----3---3-----3-----0------3----3---3-----3-|
Gb|-------0----0--0---------0---------0----0--0---------0---|
Db|-2---------------------0-----2---------------------0-----|
Ab|------------3---------------------------3----------------|
Eb|---------------------------------------------------------|

eb|-2h3-----3--3------3------------|
Bb|-----0------3----3---3-----3----|
Gb|-------0----0--0---------0------|
Db|-2---------------------0--------|
Ab|------------3-------------------|
Eb|--------------------------------|


Verse Riff 2 0:38-0:41

eb|-0h2-----3p2---0h2-------3p2-----|
Bb|-----3-------3-----3---3-----3---|
Gb|-------2-------------2---------0-|
Db|-0-------------0-----------------|
Ab|---------------------------------|
Eb|---------------------------------|

Verse Riff 3 0:42-0:54

eb|-2h3-----3--3------3---------2h3-----3--3------3---------|
Bb|-----0------3----3---3-----3-----0------3----3---3-----3-|
Gb|-------0----0--0---------0---------0----0--0---------0---|
Db|-2---------------------0-----2---------------------0-----|
Ab|------------3---------------------------3----------------|
Eb|---------------------------------------------------------|

eb|-2h3-----3--3------3------------|
Bb|-----0------3----3---3-----3----|
Gb|-------0----0--0---------0------|
Db|-2---------------------0--------|
Ab|------------3-------------------|
Eb|--------------------------------|


Verse Riff 2 0:54-0:57

eb|-0h2-----3p2---0h2-------3p2-----|
Bb|-----3-------3-----3---3-----3---|
Gb|-------2-------------2---------0-|
Db|-0-------------0-----------------|
Ab|---------------------------------|
Eb|---------------------------------|

Chorus riff 1  0:57-1:13

eb|-000000-0--000222--000000-0--000222--000000-0--000222--000000-0--000222-|
Bb|-111111-0--0003330-111111-0--0003330-111111-0--0003330-111111-0--0003330|
Gb|-000000-0--0002220-000000-0--0002220-000000-0--0002220-000000-0--0002220|
Db|-222222-2--2220000-222222-2--2220000-222222-2--2220000-222222-2--2220000|
Ab|-333333-2--222---0-333333-2--222---0-333333-2--222---0-333333-2--222---0|
Eb|--------0--000------------0--000------------0--000------------0--000----|



Chorus riff 2 1:13-1:29

eb|-000000-0--000222--000000-0--000222--000000-0--000222--000000-0-|-12*-|
Bb|-111111-0--0003330-111111-0--0003330-111111-0--0003330-111111-0-|-12*-|
Gb|-000000-0--0002220-000000-0--0002220-000000-0--0002220-000000-0-|-----|
Db|-222222-2--2220000-222222-2--2220000-222222-2--2220000-222222-2-|-----|
Ab|-333333-2--222---0-333333-2--222---0-333333-2--222---0-333333-2-|-----|
Eb|--------0--000------------0--000------------0--000------------0-|-----|


Verse Riff 3 1:30-1:41

eb|-2h3-----3--3------3---------2h3-----3--3------3---------|
Bb|-----0------3----3---3-----3-----0------3----3---3-----3-|
Gb|-------0----0--0---------0---------0----0--0---------0---|
Db|-2---------------------0-----2---------------------0-----|
Ab|------------3---------------------------3----------------|
Eb|---------------------------------------------------------|

eb|-2h3-----3--3------3------------|
Bb|-----0------3----3---3-----3----|
Gb|-------0----0--0---------0------|
Db|-2---------------------0--------|
Ab|------------3-------------------|
Eb|--------------------------------|


Verse Riff 2 1:41-1:45

eb|-0h2-----3p2---0h2-------3p2-----|
Bb|-----3-------3-----3---3-----3---|
Gb|-------2-------------2---------0-|
Db|-0-------------0-----------------|
Ab|---------------------------------|
Eb|---------------------------------|


Verse Riff 3 1:45-1:57

eb|-2h3-----3--3------3---------2h3-----3--3------3---------|
Bb|-----0------3----3---3-----3-----0------3----3---3-----3-|
Gb|-------0----0--0---------0---------0----0--0---------0---|
Db|-2---------------------0-----2---------------------0-----|
Ab|------------3---------------------------3----------------|
Eb|---------------------------------------------------------|

eb|-2h3-----3--3------3------------|
Bb|-----0------3----3---3-----3----|
Gb|-------0----0--0---------0------|
Db|-2---------------------0--------|
Ab|------------3-------------------|
Eb|--------------------------------|

Verse Riff 2 1:57-2:00

eb|-0h2-----3p2---0h2-------3p2-----|
Bb|-----3-------3-----3---3-----3---|
Gb|-------2-------------2---------0-|
Db|-0-------------0-----------------|
Ab|---------------------------------|
Eb|---------------------------------|


Verse Riff 3 2:01-2:12

eb|-2h3-----3--3------3---------2h3-----3--3------3---------|
Bb|-----0------3----3---3-----3-----0------3----3---3-----3-|
Gb|-------0----0--0---------0---------0----0--0---------0---|
Db|-2---------------------0-----2---------------------0-----|
Ab|------------3---------------------------3----------------|
Eb|---------------------------------------------------------|

eb|-2h3-----3--3------3------------|
Bb|-----0------3----3---3-----3----|
Gb|-------0----0--0---------0------|
Db|-2---------------------0--------|
Ab|------------3-------------------|
Eb|--------------------------------|

Verse Riff 2 2:12-2:15

eb|-0h2-----3p2---0h2-------3p2-----|
Bb|-----3-------3-----3---3-----3---|
Gb|-------2-------------2---------0-|
Db|-0-------------0-----------------|
Ab|---------------------------------|
Eb|---------------------------------|

Chorus riff 1  2:16-2:32

eb|-000000-0--000222--000000-0--000222--000000-0--000222--000000-0--000222-|
Bb|-111111-0--0003330-111111-0--0003330-111111-0--0003330-111111-0--0003330|
Gb|-000000-0--0002220-000000-0--0002220-000000-0--0002220-000000-0--0002220|
Db|-222222-2--2220000-222222-2--2220000-222222-2--2220000-222222-2--2220000|
Ab|-333333-2--222---0-333333-2--222---0-333333-2--222---0-333333-2--222---0|
Eb|--------0--000------------0--000------------0--000------------0--000----|


Chorus riff 2 2:32-2:51 END

eb|-000000-0--000222--000000-0--000222--000000-0--000222--000000-0-|-12*-|
Bb|-111111-0--0003330-111111-0--0003330-111111-0--0003330-111111-0-|-12*-|
Gb|-000000-0--0002220-000000-0--0002220-000000-0--0002220-000000-0-|-----|
Db|-222222-2--2220000-222222-2--2220000-222222-2--2220000-222222-2-|-----|
Ab|-333333-2--222---0-333333-2--222---0-333333-2--222---0-333333-2-|-----|
Eb|--------0--000------------0--000------------0--000------------0-|-----|

Comments