Kasama

Artist: Siakol (Tagalog)
User: tresmilbert28
Duration: 130 seconds
Delay: 12 seconds
Chord names: Not defined
Abusive:
Comment: -

URL

Uploaded:
February 8, 2016, 12:58 PM

Text

Song: Kasama
Album: rekta
Tabbed by: alay
any comments e-mail:alay_slash@yahoo.com

intro:

G|-------------------------------|
D|-------------------------------|(4x)
A|---0-5---0-5-------------------|
E|-0-----0-----3-----------------|


G|---------------------------------------------------------|
D|---4-----------------------------------------------------|(4x)
A|-------5----0-5-----0-5----0-5--4h5p4-4------------------|
E|-3---3----3-----0-3------3-------------------------------|(P.M......................................)

       (Hangin ka sa king paglipad...)
D|---4-----------------------------------------------------|(4x)
A|-------5----0-5-----0-5----0-5--4h5p4-4------------------|
E|-3---3----3-----0-3------3-------------------------------|(P.M......................................)

(1st after first stanza)
D|----4-5-4-5------0-----0---1h0---------------------------|
A|---------------0-----0---------2-------------------------|
E|-0----------3------3-------------------------------------|
(then back) 

(2nd after stanza)

D|--------------------------------------------------------|
A|-----5-----------------5--------------------------------|
E|-3-5---3-5--3-5/7--3-5---3-5--3--3----------------------|

Chorus:
      (nasan ka na........)
e|--------------------------------------------------------------|
B|--------------------------------------------------------------|
G|-9------------------------------------------------------------|
D|-9(8x)-10-----9-----7-----5-4-(Back)--------------------------|
A|-7-----10(8x)-9(8x)-7(8x)-5-4---------------------------------|
E|--------8-----7-----5-----3-2---------------------------------|

(Second stanza)

solo:

e|--------------------------------------------------------|
B|-5-555-5-7-8-----5-7-8--------5-7-8-8/10-10101010-8-7-5-|
G|-------------5555------4-44-4---------------------------|
D|--------------------------------------------------------|
A|--------------------------------------------------------|
E|--------------------------------------------------------|

e|-----------------------------------------------------7/-|
B|-5-555-5-7-8-----5-7-8--------5-7-8-8/10-10101010-8-7---|
G|-------------5555------4-44-4---------------------------|
D|--------------------------------------------------------|
A|--------------------------------------------------------|
E|--------------------------------------------------------|

e|-12-12121212-12-14-15--------------14-15----------------14-15-|
B|----------------------13-131313-13-------12-12121212-12-------|
G|--------------------------------------------------------------|
D|--------------------------------------------------------------|
A|--------------------------------------------------------------|
E|--------------------------------------------------------------|

e|-15/17-1717171717-15-14-12------------------------------------|
B|--------------------------------------------------------------|
G|--------------------------------------------------------------|
D|--------------------------------------------------------------|
A|--------------------------------------------------------------|
E|--------------------------------------------------------------|

e|-12-12121212-12-14-15--------------14-15----------------14-15-|
B|----------------------13-131313-13-------12-12121212-12-------|
G|--------------------------------------------------------------|
D|--------------------------------------------------------------|
A|--------------------------------------------------------------|
E|--------------------------------------------------------------|

e|-15/17-1717171717-15-14-12/-----------------------------------|
B|--------------------------------------------------------------|
G|--------------------------------------------------------------|
D|--------------------------------------------------------------|
A|-------------------------------------

Siakol - No Problem (Kapag Ikaw Ang Kasama) Lyrics
Artist: Siakol
Album: Rekta
Heyo! SONGLYRICS just got interactive. Highlight. Review: RIFF-it. 
RIFF-it good.
Listen while you read!
I
Parang tumama sa lotto
At naka jackpot sa bingo
Parang kay rami kong pera 
Kapag ikaw ang kasama
Parang wala ng pulosyon
Ang trapik nagka solosyon
Parang presko't maginhawa
Kapag ikaw ang kasama 

Chorus

II
Kapag ikaw ang kasama
Ang paligid ko'y ibang iba
Kapag ikaw ang kasama
Ulyanin na sa problema ha!!!

III
Parang ako si super man
Magtatanggol sa'yo peksman

Parang hiya ko'y wala na
Kapag ikaw ang kasama
Parang ayaw kong matulog
Palagi pa akong busog
Parang ang pogi ko pala
Kapag ikaw ang kasama

Repeat: chorus 1x

Parang ayaw kong magbanda
Ang gusto ko'y pulitika
Parang mas ok ang gera
Kapag mawawala ka pa

Repeat chorus 2x
Ha ah ah ah ha...

I alay ko to lahat sa inyo

Comments