Atomica

Artist: Wolfgang (Tagalog)
User: tresmilbert28
Duration: 130 seconds
Delay: 12 seconds
Chord names: Not defined
Abusive:
Comment: -

URL

Updated last time:
Alexander Suslov,
June 17, 2017, 11:13 PM

Text

Band: Wolfgang
Song: Atomica
Album: Acoustica/Wolfgang
Tabbed by: Sarvjit

Intro: Acoustica version

e|-------------------10----|-----------------------------|
B|-----------10--12--------|-----------10--12------------|
G|-12p11h12----------------|----11h12--------------------|
D|-------------------------|--0--------------------------|
A|-------------------------|-----------------------------|
E|-------------------------|-----------------------------|

e|---12p10-----------------------|---------------------------------|
B|----------12--10---------------|-----------10p8------------------|
G|------------------12--11---12--|-----11h12-------12p10-----------|
D|-------------------------------|--0---------------------12--10---|
A|-------------------------------|---------------------------------|
E|--0----------------------------|---------------------------------|

e|--------------10--10h12--|-----------------------------|
B|-----x--10h12------------|---------10h12--12b-10-------|
G|---x---------------------|---11h12----------------11---|
D|-------------------------|-0---------------------------|
A|-------------------------|-----------------------------|
E|-0-----------------------|-----------------------------|

e|-----------------7h8--7--|-----------------------------|
B|---------10--7h8---------|-------7h8--7--7h8--10--8----|
G|---11h12-----------------|---7h9-----------------------|
D|-------------------------|-0---------------------------|
A|-------------------------|-----------------------------|
E|-0-----------------------|-----------------------------|

e|------------------|----------------------|
B|--8---8---8---8---|--8----8----8----8----|
G|--7---7---7---7---|--9----9----9----9----|  4x
D|----9---9---9---9-|----10---10---10---10-|
A|------------------|----------------------|
E|------------------|----------------------|

Verse

         It started as someone's dream
         To make a better day 
         No one had foreseen 
         What that dream became 
           
            G                  C  
         Step by step We marched ahead, 
            G               C 
         never looking back 
                G                  C 
         the future's always brighter 
                          G       C         G      
         next to the remnants in our tracks 
Chorus
         
         e|-------------------------|
         B|-------------------------|
         G|-------------------------| 4x
         D|--------------3----------|
         A|---4--5----1-------3--5--|
         E|-3-------------1---------|


         stupid ignorant little child 
         you always lose your way 
         and all the souls in heaven 
         couldn't make your day 
         
         pledge allegiance unto Marx 
         the workders of to war 
         bonded brothers under red 
         sickle hammer star 
         
            G          F            C            F 
         brick by brick they built their wall 
               G     F              C       G9  
         to watch it all fall down 
                    G       F            C       F 
         and for every brick there was a life 
              G       F           C       G9 
         scattered on the ground 
         
              G           F      G        
         Atomica.... yeah yeah....
            F          G          F         G       F    C 
         this is atomica................ 


         what a monster, mand and his machine 
         all the good that he could do 
         save himself from himself 
         but he don't want to 
         
               G         F          C          F 
         so bolt by bolt and chain by chain 
               G       F              C     G9 


Comments