Pano sasabihin

Artist: Join the Club (Tagalog)
User: tresmilbert28
Duration: 130 seconds
Delay: 9 seconds
Chord names: Default
Abusive:
Comment:
Pogs musta na

URL

Uploaded:
February 4, 2016, 7:24 AM

Text

Join The Club
Paano Sasabihin
Nobela Repackaged
Submitted by:Treblim sellavsert


Tuning: Originally tuned as Eb-Ab-Db-Gb-Bb-eb to make the  F  Chord sound as  E 
but I will tune this song in standard EADGBe

Chords used:
 E  -   022100
 B  -   x24442
 C#m  - x46654
 A  -   x02220
 Am  -  x02210


Intro: E--C#m--A-- Am  (x2)

Guitar 2:
e|-------------------------------------------------|
B|-------------------------------------------------|
G|-------------------------------------------------|
D|-------------1-1-1-2-2-2-4-4-4-2-2-2-1-1-1-2-2-2-|
A|-2-2-2-4-4-4-------------------------------------|
E|-------------------------------------------------|
then
e|---------------------------------------------------|
B|---------------------------------------------------|
G|-------------------------1/4-4-4-2-2-2-1-1-1-2-2-2-|
D|-------------1-1-1-2-2-2---------------------------|
A|-2-2-2-4-4-4---------------------------------------|
E|---------------------------------------------------|


Verse 1:
 E                            C#m                    A 
          Am 
Biglang sakit sa isipan biglang wala ka na, Ang panaginip ay hindi pala tunay
    E                         C#m             A 
        Am 
At bakit ba itatangkilik hinahanap pala, sana ay madama muli ang sandali


Chorus 1:
 E           B           C#m     A             Am 
Paano sasabihin sa iyo ililihim ko pa ba
 E               B             C#m      A             Am 
Paano kung mayroon ka ng iba malilihim ko pa ba


(Repeat Intro but once only)


Verse 2:
  E                   C#m                   A 
           Am 
Ilalayo ang isipan ayaw ng balikan, At bakit ba kay kulit hindi naman maiwan
    E                         C#m                 A 
            Am 
Biglang sakit sa isipan at parang kay tagal, sana ay madama muli ang sandali


(Repeat Chorus)


(Repeat Intro but once only)


Interlude: Chorus Chords E--B--C#m--A- Am 

Guitar 2:
e|-------0-----|-------0-----|---0-------0---0---------|-------0-----|----|
B|---0-----0---|---0-----0---|-------4-----------4---0-|---0-------0-|-1--|
G|-------------|-------------|-----4---4-------4---4---|-------------|-2--|
D|-----2-----2-|-------------|-------------------------|-----2---2---|-2--|
A|-------------|-2---2-----2-|-4-----------4-----------|-0-----------|-0--|
E|-0-----------|-------------|-------------------------|-------------|----|
       x2               x2

(Repeat Chorus)


Outro:
 E           B        C#m           A 
Paano sasabihin, Paano sasabihin (x3)


End on  E 

Comments