Ehu girl

Artist: Kolohe Kai (English)
User: tresmilbert28
Duration: 130 seconds
Delay: 12 seconds
Chord names: Default
Abusive:
Comment:
Ha

URL

Uploaded:
February 4, 2016, 6:37 AM

Text

Treblim sellavsert
Intro
e|--------------------------------------------------------------------------|
B|--------5--5h6--5---------------------------5--5h6--5-------8/10-8-5------|
G|--5h7---------------7--5-5h7----5-----5h7---------------5-------------5---|
D|--------------------------------------------------------------------------|
A|--------------------------------------------------------------------------|
E|--------------------------------------------------------------------------|


e|--------------------------------------------------------------------------|
B|--8/10-8--5---------------------------------------------------------------|
G|------------5-4-----------------------------------------------------------|
D|--------------------------------------------------------------------------|
A|--------------------------------------------------------------------------|
E|--------------------------------------------------------------------------|


Lyrics With Chords

(Verse 1)| C   F   G  x2  Dm   G   Am   Dm  G|
                                                                                         
               C                          F                  G 
Said it happened last night about ten to eleven when I first layed eyes on you,
                 C                                     F 
Standing in line, into Club Triple 7, it was just like heaven and a dream
 G 
come true,
                                         Dm 
We’re standing at the right place at the right time,
          G                     Am 
When you, this ehu girl, caused the crime.

(Chorus) | C   F   G  x2  Dm   G   Am   Dm  G|
   C                      F                               G 
You’re my pretty little ehu girl who made me a fool in love,
 C                                F                                   G 
You got my heart all in a whirl and now it needs cooling off,
                         Dm                   F               Am 
You set my heart on fire and now I don’t know what to do,
                         Dm                   F               Am 
You set my heart on fire and now I’m so in love with you my ehu girl.


(Verse 2) | C   F   G  x2|
                             C 
Said I’m feeling it now, something I’ve never felt,
       F                G 
My hearts so hot I think I’m gonna melt,
          C 
Somehow, I want to see you again
 F                  G 
My love, sent from above.
And beautiful girls yes I’ve seen a few,
but out of all the beauty in the world there’s no one quite like you.

(Chorus)

(Bridge) | C   Dm  x3  F   G 
                        C            Dm 
The way your ehu hair flows in the air,
                        C              Dm 
The way your shining eyes reflect the sky,
                   C                    Dm 
The way your smile burns up my flame,
           F                                          G 
But I don’t know your name and I guess I’ll call you my...
( repeat chorus)

Comments