Every Breath You Take

Artist: The Police (English)
User: stephanie.marechal.41@gmail.com
Duration: 130 seconds
Delay: 12 seconds
Chord names: Default
Abusive:
Comment: -

URL

Uploaded:
October 21, 2015, 8:31 PM

Text

Partie A (PA) Partie A (PA)
e|--------------------|--------------------|
B|----------0---------|----------0---------|
G|-----2-------2-----2|-----2-------2-----0|
D|---0---0--------0---|---0---0--------0---|
A|--------------------|--------------------|
E|-3------------------|-3------------------|
Partie B (PB) Partie B (PB)
e|--------------------|--------------------|
B|--------------------|--------------------|
G|----------0---------|----------0---------|
D|-------4------4----4|-------4------4----4|
A|----2----2------2---|----2----2------2---|
E|-0------------------|-0------------------|
Partie C (PC) Partie D (PD)
E|--------------------|-------0------------|
B|------3----1--------|------------3------0|
G|----0----0----0----0|----2----2-----2----|
D|--------------------|-0---------------0--|
A|-3--------------3---|--------------------|
E|--------------------|--------------------|
(PA) (PA)
E|--------------------|--------------------|
B|----------0---------|----------0---------|
G|-----2-------2-----2|-----2-------2-----0|
D|---0---0--------0---|---0---0--------0---|
A|--------------------|--------------------|
E|-3------------------|-3------------------|

G (PA)
Every breath you take
Em (PA) (PB)
Every move you make
C (PB) (PC)
Every bond you break
D (PD)
Every step you take
G* (PB) (PB)
I'll be watching you
Verse 2
G (PA)
Every single day
Em (PA) (PB)
And every word you say
C (PB) (PC)
Every game you play
D (PD)
Every night you stay
G * (PA) (PA)
I'll be watching you
Chorus [sort of]
C G (PD) (PC) (PA)
Oh can't you see, you belong to me
Em D (PA) (PC) (PC) (PD)
My poor heart aches, with every breath you take
Verse 3
G (PA)
And every move you make
Em (PA) (PB)
And every vow you break
C (PB) (PC)
Every smile you fake
D (PD)
Every claim you stake
G*(PB) (PB)
I'll be watching you
Chorus [sort of]
C G (PD) (PC) (PA)
Oh can't you see, you belong to me
Em D (PA) (PC) (PC) (PD)
My poor heart aches, with every breath you take
Bridge [strum here]
Eb F
Since you've being gone I've being lost without a trace
Eb
All through the night I can only see your face
F
I look around but it's you I can't replace
Eb
I feel so cold and I long for your embrace
G [Repartir dans les RIFF)
I keep cryin?, baby, baby please
Verse 4 [same as verse 3]
G9
And every move you make
Em9
And every vow you break
C9
Every smile you fake
D9
Every claim you stake
Em9
I'll be watching you



G 3 2 0 0 3 3 G* 3 2 0 0 0 3
Em 0 2 2 0 0 0
C x 3 2 0 1 0
D x x 0 2 3 2
Eb x x 5 3 4 3
F 1 3 3 2 1 1

Comments