На кухне

Artist: Кино (Russian)
User: Sanctus
Duration: 110 seconds
Delay: 15 seconds
Chord names: Not defined
Abusive:
Comment:

URL

Uploaded:
April 7, 2014, 8:06 PM

Text

  G        Em      C       Am 
E|-------|-------|-------|-----0-|
B|----0--|----0--|----1--|---01-1|
G|--0---0|--0---0|--0---0|--2----|
D|-------|-------|-------|-------|
A|-------|2------|3------|0------|
E|3------|-------|-------|-------|

   Em      D       Bm      Bm 
E|------0|----2--|----2--|----2--|
B|----0--|3-----0|----3--|----3--|
G|--0----|--2----|--4---4|--4---4|
D|-------|0------|-------|-------|
A|-------|-------|2------|2------|
E|0------|-------|-------|-------|

 G     Em 
Ночь, день -
 C     Am 
Спать лень.
 Em    D 
Есть дым -
 Bm 
Чёрт с ним.

 G   Em 
Сна нет -
 C      Am 
Есть сон лет.
 Em   D 
Кино -
 Bm 
Кончилось давно.

 G   Em 
Мой дом,
 C   Am 
Я в нём
 Em    D 
Сижу -
 Bm 
Пень пнём.

 G    Em 
Есть свет,
 C   Am 
Сна нет.
 Em   D 
Есть ночь -
 Bm 
Уже уходит прочь.

 G    Em 
Стоит таз,
 C    Am 
Горит газ.
 Em   D 
Щелчок -
 Bm 
И газ погас.

 G    Em 
Пора спать -
 C    Am 
В кровать.
 Em   D 
Вставать,
 Bm 
Завтра вставать.


Comments